Song name
# A B C D E F G H I J K L M N O P Q R S T U V W X Y Z

Terminal - Softer Comes The Morning tab

-------------------------------------------------------------------------------
		Softer Comes The Morning - Terminal (Travis Bryant)
-------------------------------------------------------------------------------
Tabbed by: Alex Bryant
Tuning: Standard EADGBE

You can hear this song at www.purevolume.com/travisbryant

Intro and Verse-
He just repeats this part over and over until it hits the chorus.

e|---------------------------------------------------------------------------|
B|---------------------------------------------------------------------------|
G|-8----6----------------------------6-----6---------------------------------|
D|--------------------8-----8----------8-------------6-----6-----------------|
A|---9----9-------------9----------------8-------------7---------------------|
E|------------------------9------------------------------7-------------------|

e|---------------------------------------------------------------------------|
B|-----------------------------------------7---------------------------------|
G|---------------------------------------------------------------------------|
D|--9-------9---------8-----8-------6----------------------------------------|
A|----11----------------9-------------7--------------------------------------|
E|-------11---------------9-------------7------------------------------------|

I'm still messing around with getting the chorus right...so i'll probably put that up 
i've perfected it.
Tap to rate this tab
# A B C D E F G H I J K L M N O P Q R S T U V W X Y Z