Song name
# A B C D E F G H I J K L M N O P Q R S T U V W X Y Z

Terminal - Miss Louisiana Acoustic tab

Terminal - Miss Louisiana (acoustic)
Tabbed by: Justin D.

This song is fairly easy as long as you listen to the song and understand the tab. This
is not ment to be note for note, more of an interpretation for solo acoustic (not like
official acoustic version which had a piano and possibly another guitar). I belive you 
listen to it at the terminal myspace page. Enjoy!

Questions, comments, corrections, wads of cash: jubsox(at)yahoo(dot)com

Am     x02210
Amsus4 x00210
C      x32010
C/B    x22010
G      3200(1)(0)  (the high e and b are optional, whichever you feel like)


Am Amsus4 Am Amsus4 C C/B

Am Amsus4 Am Amsus4 C G


Am Amsus4 Am Amsus4    C C/B
i've been twice on the highway
Am Amsus4 Am Amsus4          C   G
back to texas, with heaven behind me
Am Amsus4 Am Amsus4 C    C/B
and it's a shame on our anniversary
Am Amsus4 Am Amsus4   C               G   C
                we've nothing left to celebrate

[Chorus]
|--0-0-0-0-0-0-0-0-0-0-0-0-0-0-0-0-0-0-0-0-0-0-0-0-0-0-0----|
|--0-0-0-0-0-0-0-0-0-0-0-0-0-0-0-0-0-0-0-0-0-0-0-0-0-0-0----|
|--7/9-9-9-7/9-9-9-7/9-9-9-9-9-9-7-7-7-7-7-7-5-5-5-5-5-5----|
|--5/7-7-7-5/7-9-9-5/7-7-7-7-7-7-5-5-5-5-5-5-3-3-3-3-3-3----|
|--0-0-0-0-0-0-0-0-0-0-0-0-0-0-0-0-0-0-0-0-0-0-0-0-0-0-0----|
|-----------------------------------------------------------|
                        darling, i
|--0-0-0-0-0-0-0-0-0-0-0-0-0-0-0-0-0-0-0-0-0-0-0-0-0-0-0----|
|--0-0-0-0-0-0-0-0-0-0-0-0-0-0-0-0-0-0-0-0-0-0-0-0-0-0-0----|
|--7/9-9-9-7/9-9-9-7/9-9-9-9-9-9-7-7-7-7-7-7-5-5-5-5-5-5----|
|--5/7-7-7-5/7-9-9-5/7-7-7-7-7-7-5-5-5-5-5-5-3-3-3-3-3-3----|
|--0-0-0-0-0-0-0-0-0-0-0-0-0-0-0-0-0-0-0-0-0-0-0-0-0-0-0----|
|-----------------------------------------------------------|
                        can't replace you


Am Amsus4 Am Amsus4 C C/B
i have to keep on moving
Am Amsus4 Am Amsus4 C G
or i get lost in all i'm losing
Am Amsus4 Am Amsus4 C C/B
i stay, drifting through my head
Am Amsus4 Am Amsus4 C G
with the static you left

[Bridge]
Am Amsus4 Am Amsus4 C C/B
give me closure
Am Amsus4 Am Amsus4 C G
it's all i want from you

Repeat chorus

Repeat Bridge
Tap to rate this tab
# A B C D E F G H I J K L M N O P Q R S T U V W X Y Z