Terrible Things - Revolution tab

Band: Terrible Things
Song: Revolution
Album: Terrible Things
Email: Shempashland@yahoo.com
Tabbed By: Matt Florio; myspace.com/mattflorio2

This is a tab for "Revolution" by Terrible Things.
The band is made up of Fred Mascherino (breaking pangea/tbs/color fred),
Andy Jackson (hotrod circuit), Josh Eppard (coheed & cambria).
Enjoy! Hit me up if you have any  questions or comments!


Tuning: 1/2 Step Down (Drop C#)


Intro
* play 7x
Eb|--------------------------|---------|
Bb|--------------------------|---------|
Gb|--------------------------|---------|
Db|--222/555/10*-222/555/12*-|--1212---|
Ab|--------------------------|--1212---|
Db|--------------------------|--1212---|
              (2x)

|----------------------------------------|
|----------------------------------------|
|--------------------------12p11-12p11---|
|--222/555/10--222/555/12-------------12-|
|--222/555/10--222/555/12----------------|
|--222/555/10*-222/555/12*---------------|

Verse

Guitar 1
|---------0~-----------0~-------|
|---------0~-----------0~-------|
|---------4~-----------4~-------|
|--0h2~---x~----0h2~---x~-------|
|--0h2~---6~----0h2~---6~-------|
|--0h2~---------0h2~------------|

Guitar 2
|---------0~----0~---0~---------|
|---------0~----0~---0~---------|
|---------8~----9~---8~---------|
|---------9~----9~---9~---------|
|--0h2~---6~----7~---6~---------|
|--0h2~-------------------------|

Pre Chorus
Guitar 1
|---55555555-55555555---|
|---88888888-88888888---|
|---99999999-88888888---|
|-----------------------|
|-----------------------|
|-----------------------|

Guitar 2
|------------33333333--------------|
|------------44444444--------------|
|---55555555-55555555--------------|
|---55555555-55555555--------------|
|---33333333-33333333--------------|
|----------------------------------|

Chorus
Guitar 1
|----------------------------------|
|----------------------------------|
|----------------------------------|
|---5555---5555---33333333---------|
|---5555---2233---33333333---------|
|---5555----------33333333---------|

Guitar 2
|----------------------------------|
|---3333---8 8----8 8---11111111---|
|---0000---0 0----0 0---00000000---|
|---0000---0 0----0 0---00000000---|
|---5555---1010--1010---33333333---|
|---5555---9 9 / 1010---33333333---|

Intro 

Verse 2
Guitar 1
|----0----0----0----0----0----0----0---|
|----0----0----0----0----0----0---17---|
|---12---14---17---12---11---17---21---|
|---14---16---19---14---13---19--------|
|--------------------------------------|
|--------------------------------------|

Guitar 2
|---12---14---17---12---11---14---17---|
|---12---16---19---12---12---12---19---|
|--------------------------------------|
|--------------------------------------|
|--------------------------------------|
|--------------------------------------|

Pre chorus
Chorus

This comes in after the 2nd Chorus (before the Bridge)
|-----------------------------|
|-----------------------------|
|-----------------------------|
|-----------------------------|
|---------------7~------------|
|---0h2/5-10h12---------------|

Bridge
Guitar 1
|-------------------|--------------------|
|-------------------|--------------------|
|-------------------|--------------------|
|-------------------|--9999999999999999--|
|--22222222222222222|--7777777766666666--|
|--22222222211111111|--------------------|
Palm Muted...
"Ive got a hundred.."

|----------------------------------------------0~--|
|----------------------------------------------3~--|
|----------------------------------------------2~--|
|---9999999999999999-7777777777777777-55555555-0~--|
|---7777777766666666-5555555544444444-33332222-0~--|
|----------------------------------------------0~--|
PM...
"make it harder on yourself..."

Guitar 2
*t means tap
|-------------------------------------------5p0h7~---|
|--------------------------------5p0-7p0-8p0---------|
|---(9)~-h11/12h11-12t11p9h8--8p0--------------------|
|----------------------------------------------------|
|----------------------------------------------------|
|----------------------------------------------------|

|-----------------8p0h7--12p-11p-12p-11p-12p-11h12-11h12-14p0h11-h17~--|
|------5p0-7p0-8p0-----------------------------------------------------|
|---8p0----------------------------------------------------------------|
|----------------------------------------------------------------------|
|----------------------------------------------------------------------|
|----------------------------------------------------------------------|

|------------------|-*-12p-14p-15p-17p-15p-14p-|--12p-14p-15p-17p-20p-19p-17p-|
|---13p12p0-h10/8--|-*-------------------------|------------------------------|
|------------------|-*-------------------------|------------------------------|
|------------------|-*-------------------------|------------------------------|
|------------------|-*-------------------------|------------------------------|
|------------------|-*-------------------------|------------------------------|
*"You'll make it harder..."

Interlude 
*Gang Vocals*

Guitar 1
|-------------------|
|-------------------|
|-------------------|
|---5~---5~5~-------|
|---5~---2~3~-------|
|---5~--------------|
"this is not a revolution..."

Guitar 2
this is only during the beginning.
|----------------------------------|
|---8p-7p--------------------------|
|--------9p-7p----7p---------------|
|--------------10p--10p-9p-7p------|
|----------------------------10~---|
|----------------------------------|

During the Last Chorus
Guitar 2
|----------------------------------|
|---7h888p7h8h10p8-----------------|
|----------------------------------|
|----------------------------------|
|----------------------------------|
|----------------------------------|
Tap to rate this tab
 
# A B C D E F G H I J K L M N O P Q R S T U V W X Y Z