Guitaretab - guitar tabs
Song name
# A B C D E F G H I J K L M N O P Q R S T U V W X Y Z

Terror - What Have We Done tab

Song: What Have We Done
Band: Terror
Album: The Lowest Of The Low
Tabbed by: Gregory Dunham

Tuning Drop D (D A D G B E)

This song is pretty easy, but freakin fun.

Intro/Verse
E|-----------------------------------------------|
B|-----------------------------------------------|
G|-----------------------------------------------|
D|---3h5--555-555-555-3h5-555---8--6---3---------|
A|---3h5--555-555-555-3h5-555---8--6---3---------|
D|---3h5--555-555-555-3h5-555---8--6---3---------|

Chorus
E|-----------------------------------------------|
B|-----------------------------------------------|
G|-----------------------------------------------|
D|--0~------------0~--------------8--6---3-------|
A|--0~------------0~--------------8--6---3-------|
D|--0~------------0~--------------8--6---3-------|
            ^
          Pickslide around here
          as your hear it on the 
          cd.
[ Tab from: http://www.guitaretab.com/t/terror/101567.html ]
Breakdown 
E|-----------------------------------------------|
B|-----------------------------------------------|
G|-----------------------------------------------|
D|--000---------------000------------------------|
A|--000---------------000------------------------|
D|--000---------------000------------------------|

E|-----------------------------------------------|
B|-----------------------------------------------|
G|-----------------------------------------------|
D|-----0~------0-0-0-0-0-0-0-0-0-0-0-0-0-0-0-0---|
A|-----0~------0-0-0-0-0-0-0-0-0-0-0-0-0-0-0-0---|
D|-----0~------0-0-0-0-0-0-0-0-0-0-0-0-0-0-0-0---|
    ^          {P.M.                           }
  Pickslide

E|-----------------------------------------------|
B|-----------------------------------------------|
G|-----------------------------------------------|
D|--5-5-5-5-6-5-5-5-5-8-8-3-3-6-6-6-6-6-6--------|
A|--5-5-5-5-6-5-5-5-5-8-8-3-3-6-6-6-6-6-6--------|
D|--5-5-5-5-6-5-5-5-5-8-8-3-3-6-6-6-6-6-6--------|
   {P.M The First 3 times, then start to release
    the mute at the end of the 4th time and 
    let it hang until the end.}

End On
E|--------|
B|--------|
G|--------|
D|--555---|
A|--555---|
D|--555---|
Related for What Have We Done tab