Song name
# A B C D E F G H I J K L M N O P Q R S T U V W X Y Z

Terror - Strike You Down tab

-------------------------------------------------------------------------------
			     Strike You Down by Terror
                        from the album: Always the Hard Way
-------------------------------------------------------------------------------
Tabbed by: emr_steelmech
PM me with suggestions/comments here: http://profile.ultimate-guitar.com/emr_steelmech/

Tuning: Dropped D (D A D G B E)

Listen to/play with the song for timing.

Intro (Guitar 1 & 2)
e|---------------------------------------------------------------------------|
B|---------------------------------------------------------------------------|
G|---------------------------------------------------------------------------|
D|-2~~~----------------------------------------------------------------------|
A|-2~~~----------------------------------------------------------------------|
D|-2~~~----------------------------------------------------------------------|

(Guitar 1 only, Guitar 2 continue to let ring)
e|------------------------------------------------------------|
B|------------------------------------------------------------|
G|------------------------------------------------------------|
D|--------------------6-----5-5-------------------------------|   X2
A|--------------------6-----5-5-------------------------------|
D|-22222--2222222--2226--2225-5-------------------------------|
   P.M..  .......  ...   ...

(Now both Guitars)
e|------------------------------------------------------------|
B|------------------------------------------------------------|
G|------------------------------------------------------------|
D|--------------------6-----5-5--------------------6---5------|   X1
A|--------------------6-----5-5--------------------6---5------|
D|-22222--2222222--2226--2225-5-22222--2222222--2226--25------|
   P.M..  .......  ...   ...    .....  .......  ...   .

Verse (Guitar 1 & 2)
e|------------------------------------------------------------|
B|------------------------------------------------------------|
G|------------------------------------------------------------|
D|--------------------6-----5-5-------------------------------|   X4
A|--------------------6-----5-5-------------------------------|
D|-22222--2222222--2226--2225-5-------------------------------|
   P.M..  .......  ...   ...

Chorus (Guitar 1 & 2)
e|---------------------------------------------------------------------------|
B|---------------------------------------------------------------------------|
G|---------------------------------------------------------------------------|
D|-0~-------5/7-8\7-5/7~-------1----1----0~-------5/7-8\7-5/7~-------8-7-5-8-|
A|-0~-------3/5-6\5-3/5~-------1----1----0~-------3/5-6\5-3/5~-------6-5-3-6-|
D|-0~--------------------------1-11-1-11-0~----------------------------------|
                                 ..   ..                               . .

Verse (Guitar 1 & 2)
e|------------------------------------------------------------|
B|------------------------------------------------------------|
G|------------------------------------------------------------|
D|--------------------6-----5-5-------------------------------|   X4
A|--------------------6-----5-5-------------------------------|
D|-22222--2222222--2226--2225-5-------------------------------|
   P.M..  .......  ...   ...

Chorus (Guitar 1 & 2)
e|---------------------------------------------------------------------------|
B|---------------------------------------------------------------------------|
G|---------------------------------------------------------------------------|
D|-0~-------5/7-8\7-5/7~-------1----1----0~-------5/7-8\7-5/7~-------8-7-5-8-|
A|-0~-------3/5-6\5-3/5~-------1----1----0~-------3/5-6\5-3/5~-------6-5-3-6-|
D|-0~--------------------------1-11-1-11-0~----------------------------------|
                                 ..   ..                               . .
Breakdown

Guitar 1
e|----------------------------------------------------------------------|
B|----------------------------------------------------------------------|
G|----------------------------------------------------------------------|
D|-2----------------3-----0-----0-----6----------------5-----3-----5----| X4
A|-2----------------3-----0-----0-----6----------------5-----3-----5----|
D|-2----------------3-----0-----------6----------------5-----3-----5----|

Guitar 2
e|----------------------------------------------------------------------|
B|------------------------------------<----\\Play 4th time only//------>|
G|----------------------------------------------------------------------|
D|-2~~~-------------------------------6----------------5-----3-----5----| X4
A|-2~~~-------------------------------6----------------5-----3-----5----|
D|-2~~~-------------------------------6----------------5-----3-----5----|

Guitar 1
e|----------------------------------------------------------------------|
B|----------------------------------------------------------------------|
G|----------------------------------------------------------------------|
D|-2----------------3-----0-----0-----6----------------5-----3-----5----|
A|-2----------------3-----0-----0-----6----------------5-----3-----5----|
D|-2----------------3-----0-----------6----------------5-----3-----5----|

Guitar 1 cont'd.
e|----------------------------------------------------------------------|
B|----------------------------------------------------------------------|
G|----------------------------------------------------------------------|
D|-2----------------3-----0-----0-----6-----------------------6------5~~|
A|-2----------------3-----0-----0-----6-----------------------6------5~~|
D|-2----------------3-----0-----------6-----------------2222226--22225~~|
                                                        P.M...   ....

Guitar 2
e|---------------------------------------------------------------------|
B|---------------------------------------------------------------------|
G|---------------------------------------------------------------------|
D|-----------------------------------------------------------6------5--|  X2
A|-----------------------------------------------------------6------5--|
D|-22222--2222222--2222222--2222222--2222222--2222222--2222226--22225--|
   P.M..  .......  .......  .......  .......  .......  ......   ....

YOUR TURN..TO FEEL..THE..PAIN!!! (Guitar 1 & 2)
e|----------------------------------------------------------------------|
B|-----------------------\Last time only/-------------------------------|
G|------------------------------^---------------------------------------|
D|-----------4-3--------1---1-3-0---------------------------------------| X4
A|-----------4-3--------1---1-3-0---------------------------------------|
D|-000000000-4-3-000000-1-0-1-3-0---------------------------------------|
   P.M......     ......   .

And there you have it, the most hardcore 1:29 you will ever experience. =D

Please rate this tab!!

| /  slide up
| \  slide down
| h  hammer-on
| p  pull-off
| ~  vibrato / let ring
| +  harmonic
| x  Mute note
| *  Pinch harmonic
===============================================================================
Tap to rate this tab
# A B C D E F G H I J K L M N O P Q R S T U V W X Y Z