Song name
# A B C D E F G H I J K L M N O P Q R S T U V W X Y Z

Terror - Better Off Without You tab

Terror - Better Off Without You

disclaimer thingy: uh, this song is the property of terror and bridge 9 records, this is 
official this is just my interpretation of the song based on listening.


Tuning: Dropped D

intro:

e-|-------------------------------------------------------------|
B-|-------------------------------------------------------------|
G-|---------5-----------------5-----7---------------------------|
D-|-6-6-6-6-5-6-6-0~--6-6-6-6-5-6-6-7 (X 13)-0~-----------------|
A-|-6-6-6-6-3-6-6-0~--6-6-6-6-3-6-6-5--------0~-----------------|
D-|-6-6-6-6---6-6-0~--6-6-6-6---6-6----------0~-----------------|
pm    . . .             . . .

verse: (x2)
             (* = play 5 times)
e-|--------------------------------------------------------------|
B-|--------------------------------------------------------------|
G-|---------5---------5*----7*----5*--7/8---------6\5------------|
D-|-6-6-6-6-5-6-6--0*-5*-0*-7*-0*-5*--7/8-0-6\5-0-6\5-0-5/6--5/6-|
A-|-6-6-6-6-3-6-6--0*-3*-0*-5*-0*-3*--5/6-0-6\5-0-4\3-0-5/6--5/6-|
D-|-6-6-6-6---6-6--0*----0*----0*---------0-6\5-0-----0-5/6--5/6-|
pm    . . .                               .     .     .

e-|--------------------------------------------------------------|
B-|--------------------------------------------------------------|
G-|------5*----7*----5*--7/8---------6\5-------------------------|
D-|---0*-5*-0*-7*-0*-5*--7/8-0-6\5-0-6\5-0-5/6--5/6--------------|
A-|---0*-3*-0*-5*-0*-3*--5/6-0-6\5-0-4\3-0-5/6--5/6--------------|
D-|---0*----0*----0*---------0-6\5-0-----0-5/6--5/6--------------|
pm                           .     .     .

Breakdown: (X4)

e-|-------------------------------------------------------------|
B-|-------------------------------------------------------------|
G-|-------------------------------------------------------------|
D-|-0-----------3-1-4-3-0-3-------6-----------------------------|
A-|-0-----------3-1-4-3-0-3-(X 6)-6-(X 8)-----------------------|
D-|-0-0-0-0-0-0-3-1-4-3-0-3-------6-----------------------------|
pm    . . . . .

post breakdown:

e-|-------------------------------------------------------------|
B-|-------------------------------------------------------------|
G-|-------------------------------------------------------------|
D-|-0~-0~-------------------------------------------------------|
A-|-0~-0~-------------------------------------------------------|
D-|-0~-0~-------------------------------------------------------|

repeate 2nd half of intro and all of verse

outro: (X6)

e-|----------------------------------------------------------------------|
B-|----------------------------------------------------------------------|
G-|-------------7/8\7------------------------------7/8\7-----------------|
D-|-0-0-0-0-0-0-7/8\7-0-0-0-0-0-0-6/5\6------------7/8\7-3-3-3-3-6-6-3-3-|
A-|-0-0-0-0-0-0-5/6\5-0-0-0-0-0-0-6/5\6------------5/6\5-3-3-3-3-6-6-3-3-|
D-|-0-0-0-0-0-0-------0-0-0-0-0-0-6/5\6-0-0-0-0-0-0------3-3-3-3-6-6-3-3-|
Tap to rate this tab
# A B C D E F G H I J K L M N O P Q R S T U V W X Y Z