Song name
# A B C D E F G H I J K L M N O P Q R S T U V W X Y Z

Terror - Hell To Pay tab

Tuning: Drop D (DADGBE)
Intro(x2):
E|----------|
B|----------|
G|7--5--8--5|
D|7--5--8--5|
A|5--3--6--3|
D|----------|
Pre-Verse/Verse 1(x3)
|------------------------------|
|------------------------------|
|88-7---5-7---10-8------55555/8|
|88-7---5-7---10-8------55555/8|
|66-5---3-5---8--6------33333/6|
|----000---000----000000-------|
    PM-|  PM-|  PM-----| 
|----------------------------|
|----------------------------|
|7---5-7---10-8------10/8-5/8|
|7---5-7---10-8------10/8-5/8|
|5---3-5---8--6------8-/6-3/6|
|-000---000----000000--------|
 PM-|  PM-|   PM-----|
Chorus 1(x4):
|--------------------------------------|
|--------------------------------------|
|----------------5-7-----------10/8-5/7|
|----------------5-7-----------10/8-5/7|
|----------------3-5-----------8-/6-3/5|
|0000000000000000-0--0000000000--------|
PM--------------| -| ----------|
Verse 2(x2):
|------------------------------|
|------------------------------|
|55-7---5-7---10-8------55555/8|
|55-7---5-7---10-8------55555/8|
|33-5---3-5---8--6------33333/6|
|----000---000----000000-------|
    PM-|  PM-|  PM-----| 
|----------------------------|
|----------------------------|
|7---5-7---10-8------10/8-5/8|
|7---5-7---10-8------10/8-5/8|
|5---3-5---8--6------8-/6-3/6|
|-000---000----000000--------|
 PM-|  PM-|   PM-----|
Chorus 2 (x4)
|--------------------------------------|
|--------------------------------------|
|----------------5-7-----------10/8-5/7|
|----------------5-7-----------10/8-5/7|
|----------------3-5-----------8-/6-3/5|
|0000000000000000-0--0000000000--------|
PM--------------| -| ----------|
Breakdown/ Outro:
|-------------------|
|-------------------|
|-5-7-----------10-8|
|-5-7-----------10-8|
|-3-5-00-000000-8--6|
|--0--00-000000---0-|
 PM-|         PM-|


PM=Palm Mute(aka Chug)
Tap to rate this tab
# A B C D E F G H I J K L M N O P Q R S T U V W X Y Z