Guitaretab - guitar tabs
Song name
# A B C D E F G H I J K L M N O P Q R S T U V W X Y Z

Terror - Disconnected tab

Artist: Terror
Album: Ryhthm against the chaos EP
Song: Disconnected
by: ddranthony92
Tuning: Drop D

. = pm
H = hold note

Intro

First Guitar:
E|--------|
B|--------|
G|--------|
D|--------|
A|-4-0-3--|
D|-4-0-3--|**hold last note while guitar 2 playes**


Second Guitar:play after first guitar

E|-------------|
B|-------------|
G|-------------|
D|-------------|
A|-00-4-0-6/3--|
D|-00-4-0-6/3--|**hold last note while guitar 1 plays**
   ..

verse:


E|----------------------------------------|
B|----------------------------------------|
G|----------------------------------------|
D|-5/7------5/7-----------8/4-------------|
A|-3/5------3/5-----------6/4------6-5-3--|
D|-----0000------00000000-----0000-6-5-3--|
       ....      ........     ....



bridge
[ Tab from: http://www.guitaretab.com/t/terror/161372.html ]
E|------------------------------------|
B|------------------------------------|
G|------------------------------------|
D|------------------------------------|
A|-5----6-5-3-5-6-5-5----6-5-3-5-6-5--|
D|-5----6-5-3-5-6-5-5----6-5-3-5-6-5--|
   H                H


E|----------------------------------------------|
B|----------------------------------------------|
G|----------------------------------------------|
D|-7/5------7/5----------7/5--------7/5------8--|
A|-5/3------5/3----------5/3--------5/3------6--|
D|-----0000-----00000000-----000000-----0000----|



E|------------------------------------|
B|------------------------------------|
G|------------------------------------|
D|-7/5------7/5----------7/8/7/5/7/8--|
A|-5/3------5/3----------5/6/5/3/5/6--|
D|-----0000-----00000000--------------|


right after bass fill

E|------|
B|------|
G|------|
D|-7/8--|
A|-5/6--|
D|------| then play the verse


then you repeat alot then

E|---------------|
B|---------------|
G|---------------|
D|---------------|
A|-4-0-3-3333333-|
D|-4-0-3-3333333-|
         .......


basicly figure out where you repeat things and there the whole song.

thanks!...rate comment!!



Related for Disconnected tab
Advertisement will be closed in 10 seconds