Song name
# A B C D E F G H I J K L M N O P Q R S T U V W X Y Z

Terror - Nothing To Me tab

Help us improve GuitareTab! Take a short survey!
Nothing To Me                   ________________     
By: Terror                      |      key      |         
                                |               |
                                | . = pm        |
                                | " = trem pick |
                                |_______________|

D|---------------------------------------------------------|
A|---------------------------------------------------------|
F|---------------------------------------------------------| 4x
C|---------------------------------------------------------| 
G|--4----4----4/5---4--4----4----4/5---8-8---5-555---------|
D|--2-00-2-00-2/3-0-2--2-00-2-00-2/3-0-6-6-0-3-333---------|
      ..   ..     .      ..   ..     .     .

D|---------------------------------------------------------|
A|---------------------------------------------------------|
F|---------------------------------------------------------| 2x
C|-------------------999-5---------------------------------|
G|--4--5-44--5-44--5-777-3-5-------------------------------|
D|--2--3-22--3-22--3-------3-------------------------------|

D|---------------------------------------------------------|
A|---------------------------------------------------------|
F|---------------------------------------------------------| 2x
C|--------------------------999-5--------------------------|
G|--4-----5-4-----5-4-----5-777-3-5------------------------|
D|--2-2"--3-2-2"--3-2-2"--3-------3------------------------|
      .       .       .

D|---------------------------------------------------------|
A|---------------------------------------------------------|
F|---------------------------------------------------------| 4x
C|---------------------------------------------------------|
G|--5/7---4-4---5/7---2-2---5/7---7-7---4------------------|
D|--3/5-0-2-2-0-3/5-0-0-0-0-3/5-0-5-5-0-2------------------|
        .     .     .     .     .     .

D|---------------------------------------------------------|
A|---------------------------------------------------------|
F|---------------------------------------------------------| Hold then pickslide
C|---------------------------------------------------------|
G|--4------------------------------------------------------|
D|--2------------------------------------------------------|

D|---------------------------------------------------------|
A|---------------------------------------------------------|
F|---------------------------------------------------------| 2x
C|-------------------999-5---------------------------------|
G|--4--5-44--5-44--5-777-3-5-------------------------------|
D|--2--3-22--3-22--3-------3-------------------------------|

D|---------------------------------------------------------|
A|---------------------------------------------------------|
F|---------------------------------------------------------| 2x
C|--------------------------999-5--------------------------|
G|--4-----5-4-----5-4-----5-777-3-5------------------------|
D|--2-2"--3-2-2"--3-2-2"--3-------3------------------------|
      .       .       .

D|---------------------------------------------------------|
A|---------------------------------------------------------|
F|---------------------------------------------------------| 4x
C|---------------------------------------------------------|
G|--5/7---4-4---5/7---2-2---5/7---7-7---4------------------|
D|--3/5-0-2-2-0-3/5-0-0-0-0-3/5-0-5-5-0-2------------------|
        .     .     .     .     .     .

D|---------------------------------------------------------|
A|---------------------------------------------------------|
F|---------------------------------------------------------| Hold
C|---------------------------------------------------------|
G|--4------------------------------------------------------|
D|--2------------------------------------------------------|

D|---------------------------------------------------------|
A|---------------------------------------------------------|
F|---------------------------------------------------------| 2x
C|---------------------------------------------------------| 
G|--4----4----4/5---4--4----4----4/5---8-8---5-555---------|
D|--2-00-2-00-2/3-0-2--2-00-2-00-2/3-0-6-6-0-3-333---------|
      ..   ..     .      ..   ..     .     .

D|---------------------------------------------------------|
A|---------------------------------------------------------|
F|---------------------------------------------------------| 
C|---------------------------------------------------------| 
G|--4----4----4/5---4-4444444-4----4----4/5---8-8---5-555--|
D|--2-00-2-00-2/3-0-2-2222222-2-00-2-00-2/3-0-6-6-0-3-333--|
      ..   ..     .   .......   ..   ..     .     .

D|---------------------------------------------------------|
A|---------------------------------------------------------|
F|---------------------------------------------------------| 
C|---------------------------------------------------------| 
G|--4----4----4/5---4--4----4----4/5---8-8---5-555---------|
D|--2-00-2-00-2/3-0-2--2-00-2-00-2/3-0-6-6-0-3-333---------|
      ..   ..     .      ..   ..     .     .

D|---------------------------------------------------------|
A|---------------------------------------------------------|
F|---------------------------------------------------------| Hold
C|---------------------------------------------------------|
G|--4------------------------------------------------------|
D|--2------------------------------------------------------|

Related for Nothing To Me tab