Song name
# A B C D E F G H I J K L M N O P Q R S T U V W X Y Z

Terror - Never Alone tab

Never Alone - Terror.
The Damned, The Shamed.

www.myspace.com/terror
www.myspace.com/bridgedofficial

Tuning: Drop D

(INTRODUCTION)
*Play Twice*
E|------------------------------------------------|
B|------------------------------------------------|
G|------------------------------------------------|
D|------------------------------------------------|
A|---0-00-0-000--0-00-0-000--0-00-0-000-0000000---|
E|---0-00-0-000--0-00-0-000--0-00-0-000-0000000---|


(MAIN RIFF)
*Play Twice*
E|----------------------------------------------------------------------------|
B|----------------------------------------------------------------------------|
G|---8-------7-----------5---7---8---5---7----8-------7-----------------------|
D|---8-------7-----------5---7---8---5---7----8-------7-----------------------|
A|---6--0-0--5--0-0-0-0--3---5---6---3---5----6--0-0--5--0-0-0-0--4-4-4-4-----|
E|------0-0-----0-0-0-0----0--0--0--0------------0-0-----0-0-0-0--4-4-4-4-----|
'Never alone....You're never alone!'


(TRANSITION)
*Play Once*
E|--------------------|
B|--------------------|
G|--------------------|
D|--------------------|
A|---1~--4~--4~--3~---|
E|---1~--4~--4~--3~---|


(VERSE)
*Play Eight Times*
E|--------------------------------------------------|
B|--------------------------------------------------|
G|---8--5--8--7--0-0-0-0-0--7--8--5--8--7--5--8--7--|
D|---8--5--8--7--0-0-0-0-0--7--8--5--8--7--5--8--7--|
A|---6--3--6--5--0-0-0-0-0--5--6--3--6--5--3--6--5--|
E|---------------0-0-0-0-0--------------------------|
                 * * * * *
'So lost in these days...'


(TRANSITION)
*Play Once*
E|---------------------|
B|---------------------|
G|---------------------|
D|---3~--4-3-1-4---3~--|
A|---3~--4-3-1-4---3~--|
E|---3~--4-3-1-4---3~--|
         * * * *
'When you're down reach for me...'


(MAIN RIFF)
*Play Twice*
E|----------------------------------------------------------------------------|
B|----------------------------------------------------------------------------|
G|---8-------7-----------5---7---8---5---7----8-------7-----------------------|
D|---8-------7-----------5---7---8---5---7----8-------7-----------------------|
A|---6--0-0--5--0-0-0-0--3---5---6---3---5----6--0-0--5--0-0-0-0--4-4-4-4-----|
E|------0-0-----0-0-0-0---0--0--0--0-------------0-0-----0-0-0-0--4-4-4-4-----|
        * *     * * * *    *  *  *  *            * *     * * * *
'Never alone...never alone!'


(VERSE)
*Play Eight Times*
E|--------------------------------------------------|
B|--------------------------------------------------|
G|---8--5--8--7--0-0-0-0-0--7--8--5--8--7--5--8--7--|
D|---8--5--8--7--0-0-0-0-0--7--8--5--8--7--5--8--7--|
A|---6--3--6--5--0-0-0-0-0--5--6--3--6--5--3--6--5--|
E|---------------0-0-0-0-0--------------------------|
                 * * * * *
'In these troubled times...'


(TRANSITION)
*Play Once*
E|---------------------|
B|---------------------|
G|---------------------|
D|---3~--4-3-1-4---3~--|
A|---3~--4-3-1-4---3~--|
E|---3~--4-3-1-4---3~--|
         * * * *
'When you're down reach for me...'


(MAIN RIFF)
*Play Twice*
E|----------------------------------------------------------------------------|
B|----------------------------------------------------------------------------|
G|---8-------7-----------5---7---8---5---7----8-------7-----------------------|
D|---8-------7-----------5---7---8---5---7----8-------7-----------------------|
A|---6--0-0--5--0-0-0-0--3---5---6---3---5----6--0-0--5--0-0-0-0--4-4-4-4-----|
E|------0-0-----0-0-0-0----0--0--0--0------------0-0-----0-0-0-0--4-4-4-4-----|
        * *     * * * *    *  *  *  *            * *     * * * *  * * * *
'Never alone...never alone!'


(TRANSITION)
*Play Once*
E|----------|
B|----------|
G|----------|
D|---0~~~---|
A|---0~~~---|
E|---0~~~---|
'When you're down, reach for me...'


(BREAKDOWN)
*Play Twice*
E|----------------------------------------------------------------------------|
B|----------------------------------------------------------------------------|
G|0-0-0-0---8-------7-----------5---7---8---5---7---8-------7-----------------|
D|0-0-0-0---8-------7-----------5---7---8---5---7---8-------7-----------------|
A|0-0-0-0---6--0-0--5--0-0-0-0--3---5---6---3---5---6--0-0--5--0-0-0-0-4-4-4-4|
E|0-0-0-0------0-0-----0-0-0-0----0--0--0--0-----------0-0-----0-0-0-0-4-4-4-4|
  * * * *      * *     * * * *    *  *  *  *           * *     * * * * * * * 'NEVER ALONE!'

Enjoy!
Tap to rate this tab
 
# A B C D E F G H I J K L M N O P Q R S T U V W X Y Z