Song name
# A B C D E F G H I J K L M N O P Q R S T U V W X Y Z

Terror - Arms Of The Truth tab

-----------------------------------------------------------------------
                     Arms of the Truth - Terror
-----------------------------------------------------------------------
Tabbed by: alanaxxhxc	
Email: alanaduenas@yahoo.com

Tuning: Drop D

Main Riff
e|--------------------------------------------------------------------|
B|--------------------------------------------------------------------|
G|--------------------------------------------------------------------|
D|-8--10-8---10-8---10-7---5/7/8--10-8---10-8---10-7---5/7/-----X2----|
A|-6--8--6---8--6---8--5---3/5/6--8--6---8--6---8--5---3/5/-----------|
D|--00--0-000--0-000--0-000-----00--0-000--0-000--0-000---------------|
    xx  x xxx  x xxx  x xxx     xx  x xxx  x xxx  x xxx

Verse
e|--------------------------------------------------------------------|
B|--------------------------------------------------------------------|
G|--------------------------------------------------------------------|
D|------------------------------------------------------5/7/----------|
A|-6/5/3---6/5/3-----3-0-----3/5/6-5/3-6/5/3-----3-0----3/5/----------|
D|-6/5/3---6/5/3--00-3-0-00--3/5/6-5/3-6/5/3--00-3-0--00--------------|
                  xx    |xx          X3       xx    | xx

On the second time playing the verse play this instead of 5/7/
                                                          3/5/
e|-----------|
B|-----------|
G|-----------|
D|-----------|
A|-3-5-0-----|
D|-3-5-0-----|

Alternate between the main riff and the verse twice, then play this twice:
e|--------------------------------------------------------------------|
B|--------------------------------------------------------------------|
G|--------------------------------------------------------------------|
D|-8/7-5/7-8/7-------------X3-----------------------------------------|
A|-6/5-3/5-6/5----------------3/5-55\3/6-66\3-0-----------------------|
D|-------------00-000-000-----3/5-55\3/6-66\3-0-----------------------|
               xx xxx xxx


************************************

| /   slide up
| \   slide down
| h   hammer-on
| p   pull-off
| ~   vibrato
| +   harmonic
| x   Mute note
| b   Bend
| pb  Pre-bend
| br  Bend release
| pbr Pre-bend release
| brb Bend release bend

************************************
Tap to rate this tab
 
# A B C D E F G H I J K L M N O P Q R S T U V W X Y Z