Song name
# A B C D E F G H I J K L M N O P Q R S T U V W X Y Z

Terror - One With The Underdogs tab

my first tab, pretty sure it is right, if not then most of it is.


E|----------------------------|
B|----------------------------|
G|----------------------------|X5
D|-1p00-1p00-1p00-1-444-------|
A|-1p00-1p00-1p00-1-444-------|
D|-1p00-1p00-1p00-1-444-------|


E|------------------------------------------|
B|------------------------------------------|
G|------------------------------------------|X2
D|------------------------------------------|
A|-3-333333333-66-3-333333-0-66-------------|
D|-3-333333333-66-3-333333-0-66-------------|


E|----------------------------|
B|----------------------------|
G|----------------------------|X5
D|-1p00-1p00-1p00-1-444-------|
A|-1p00-1p00-1p00-1-444-------|
D|-1p00-1p00-1p00-1-444-------|


E|------------------------------------------|
B|------------------------------------------|
G|------------------------------------------|X2
D|------------------------------------------|
A|-3-333333333-66-3-333333-0-66-------------|
D|-3-333333333-66-3-333333-0-66-------------|


E|----------------------------|
B|----------------------------|
G|-----------------------|X11-|
D|----------------------------|
A|-00000-1/3-00-3/4-----------|
D|-00000-1/3-00-3/4-----------|


E|------------------------------|
B|------------------------------|
G|------------------------------|X2
D|------------------------------|
A|--0000-3-4-3-1-3-0000-3-1-3---|
D|--0000-3-4-3-1-3-0000-3-1-3---|
Tap to rate this tab
 
# A B C D E F G H I J K L M N O P Q R S T U V W X Y Z