Song name
# A B C D E F G H I J K L M N O P Q R S T U V W X Y Z

Terror - Spit My Rage tab

Artist: Terror
Album: One With The UnderDogs
Song: Spit My Rage
Label: Trustkill


Intro:

 E |------------------|
 B |------------------|
 G |-----------757----|
 D |-----------757----| 3x
 A |-----------535----|
 D |-0-0000000--------|

 E |------------------|
 B |------------------|
 G |-----------8108---|
 D |-----------8108---|
 A |-----------69-6---|
 D |-0-0000000--------|

 E |------------------|
 B |------------------|
 G |-----------757----|
 D |-----------757----| 3x
 A |-----------535----|
 D |-0-0000000--------|

 E |---------|
 B |---------|
 G |-8/------|
 D |-8/------|
 A |-6/--4-1-|
 D |-----4-1-|

 Verse 1:Play the Intro 2x

 Verse 2:


 E |---------------|
 B |---------------|
 G |---------------|
 D |---------------| 3x
 A |-0-3-1--4-3-1--|
 D |-0-3-1--4-3-1--|

 E |--------|
 B |--------|
 G |--------|
 D |--------|
 A |-0-3-1--|
 D |-0-3-1--|

 Verse 1
 Verse 2

 Verse 3:

 E |-------------------|
 B |-------------------|
 G |-------------------|
 D |-------------------| 6X
 A |-000-0-000-0-0000--|
 D |-000-0-000-0-0000--|

 Verse 4:

 E |---------------|
 B |---------------|
 G |---------------|
 D |-6-----3----4--|
 A |-6p3---3p1--4--|
 D |-6p3---3p1--4--|

 E |-------------------|
 B |-------------------|
 G |-------------------|
 D |-------------------| 2x
 A |-000-0-000-0-0000--|
 D |-000-0-000-0-0000--|

 Verse 4
 Verse 4
 Verse 4

 Verse 3
 Verse 3
 verse 3
 verse 3:
 E |---------------------|
 B |---------------------|
 G |---------------------|
 D |-------------------1-|
 A |-000-0-000-0-0000--1-|
 D |-000-0-000-0-0000--1-|

 Verse 3
 Verse 3
 Verse 3
 verse 3:
 E |---------------------|
 B |---------------------|
 G |---------------------|
 D |-------------------1-|
 A |-000-0-000-0-0000--1-|
 D |-000-0-000-0-0000--1-|

 Verse 3
 Verse 3
 Verse 3
 verse 3:
 E |---------------------|
 B |---------------------|
 G |---------------------|
 D |-------------------1-|
 A |-000-0-000-0-0000--1-|
 D |-000-0-000-0-0000--1-|

 Verse 3
 Verse 3
 Verse 3
 verse 3:
 E |---------------------|
 B |---------------------|
 G |---------------------|
 D |-------------------1-|
 A |-000-0-000-0-0000--1-|
 D |-000-0-000-0-0000--1-|

 Outro:

 E |------------------------|
 B |------------------------|
 G |------------------------|
 D |-------------------1----|
 A |-000-0-000-0-0000--1-0--|
 D |-000-0-000-0-0000--1-0--|
Tap to rate this tab
 
# A B C D E F G H I J K L M N O P Q R S T U V W X Y Z