Song name
# A B C D E F G H I J K L M N O P Q R S T U V W X Y Z

Terror - Always The Hard Way tab

Tuning: Drop D

* = Palm mute


Intro:
e|---------------------------------------|
B|---------------------------------------|
G|---------------------------------------|
D|-33--2-2--333--2-2--33--2-2--xx-35-35--|  x2
A|-33--2-2--333--2-2--33--2-2--xx-35-35--|
D|-33--2-2--333--2-2--33--2-2--xx-35-35--|

Verse
e|---------------------------------------|
B|---------------------------------------|
G|---------------------------------------|
D|-2---------------------------x3x3-353--| x2
A|-2---------------------------x3x3-353--|
D|-2---------------------------x3x3-353--| 

e|---------------------------------------|
B|---------------------------------------|
G|---------------------------------------|
D|-2-2222-3--2-2222-3--2-2222--3333-353--| x2
A|-2-2222-3--2-2222-3--2-2222--3333-353--|
D|-2-2222-3--2-2222-3--2-2222--3333-353--|
     ****      ****      ****   * *
e|------------------------------------------------------------|
B|------------------------------------------------------------|
G|------------------------------------------------------------|
D|-0----------353-2-22222222-353--0-----------353-2-2222-3-2--|
A|-0----------353-2-22222222-353--0-----------353-2-2222-3-2--|
D|-0-00000000-353-2-22222222-353--0-000000000-353-2-2222-3-2--|
     ********       **** ***        *********       ** *  

Chorus:
e|---------------------------------------|
B|---------------------------------------|
G|---------------------------------------|
D|-2-22222--3-33333--0-00000000--353-----| x4
A|-2-22222--3-33333--0-00000000--353-----|
D|-2-22222--3-33333--0-00000000--353-----|
     ** **   ** **     ** ** 


Verse
e|---------------------------------------|
B|---------------------------------------|
G|---------------------------------------|
D|-2---------------------------x3x3-353--| x2
A|-2---------------------------x3x3-353--|
D|-2---------------------------x3x3-353--|

e|---------------------------------------|
B|---------------------------------------|
G|---------------------------------------|
D|-2-2222-3--2-2222-3--2-2222--3333-353--| x2
A|-2-2222-3--2-2222-3--2-2222--3333-353--|
D|-2-2222-3--2-2222-3--2-2222--3333-353--|
     ****      ****      ****   * *
e|------------------------------------------------------------|
B|------------------------------------------------------------|
G|------------------------------------------------------------|
D|-0----------353-2-22222222-353--0-----------353-2-2222-3-2--|
A|-0----------353-2-22222222-353--0-----------353-2-2222-3-2--|
D|-0-00000000-353-2-22222222-353--0-000000000-353-2-2222-3-2--|
     ********       **** ***        *********       ** *  


Chorus:
e|---------------------------------------|
B|---------------------------------------|
G|---------------------------------------|
D|-2-22222--3-33333--0-00000000--353-----| x4
A|-2-22222--3-33333--0-00000000--353-----|
D|-2-22222--3-33333--0-00000000--353-----|
     ** **   ** **     ** ** 

Ending
e|---------------------------------------|
B|---------------------------------------|
G|---------------------------------------|
D|-2-------232-------2-------232---------|
A|-2-------232-------2-------232---------|
D|-2-------232-------2-------232---------|

e|---------------------------------------|
B|---------------------------------------|
G|---------------------------------------|
D|-0------000-------0--------000---------|
A|-0------000-------0--------000---------|
D|-0------000-------0--------000---------|
          **                 **
e|---------------------------------------|
B|---------------------------------------|
G|---------------------------------------|
D|-33--2-2--333--2-2--33--2-2--xx-35-35--|  x4
A|-33--2-2--333--2-2--33--2-2--xx-35-35--|
D|-33--2-2--333--2-2--33--2-2--xx-35-35--| 
Tap to rate this tab
 
# A B C D E F G H I J K L M N O P Q R S T U V W X Y Z