Song name
# A B C D E F G H I J K L M N O P Q R S T U V W X Y Z

Terror - Lowest Of The Low tab

Help us improve GuitareTab! Take a short survey!
. - palm mute

Intro x2
D|--------------------------------|
A|--------------------------------|
F|--------------5------------5----|
C|--4---5-7-4---5-7-4---5-7--5-7--|
G|--4---5-7-4---3-7-4---5-7--3-7--|
D|--2---3-5-2-----5-2---3-5----5--|


Verse x2
D|---------------------------------------------------------|
A|---------------------------------------------------------|
F|------------------------5------------------5-5-5---------|
C|-4--4-4-4-5-7-4---4-4-4-5-7-4---4-4-4-5-7--5-5-5--7-7-7--|
G|-4--4-4-4-5-7-4---4-4-4-3-7-4---4-4-4-5-7--3-3-3--7-7-7--|
D|-2--2-2-2-3-5-2---2-2-2---5-2---2-2-2-3-5---------5-5-5--|
      . . .         . . .         . . .


Chorus x2
D|--------------------------------------|----|
A|--------------------------------------|----|
F|-----------------------------------5--|----|
C|-5/4--5/4--5/4--7---5/4--5/4--5/4--5--|-4--|
G|-5/4--5/4--5/4--7---5/4--5/4--5/4--3--|-4--|Pickslide
D|-3/2--3/2--3/2--5---3/2--3/2--3/2-----|-2--|  


Verse x2
D|---------------------------------------------------------|
A|---------------------------------------------------------|
F|------------------------5------------------5-5-5---------|
C|-4--4-4-4-5-7-4---4-4-4-5-7-4---4-4-4-5-7--5-5-5--7-7-7--|
G|-4--4-4-4-5-7-4---4-4-4-3-7-4---4-4-4-5-7--3-3-3--7-7-7--|
D|-2--2-2-2-3-5-2---2-2-2---5-2---2-2-2-3-5---------5-5-5--|
      . . .         . . .         . . .

Chorus x2
D|------------------------------|
A|------------------------------|
F|-----------------11-11-11-11--|
C|--5/4--5/4--5/4--11-11-11-11--|
G|--5/4--5/4--5/4--9--9--9--9---|
D|--3/2--3/2--3/2---------------|


Breakdown x6
D|--------------------------------------------------------|----|
A|--------------------------------------------------------|----|
F|---------------------------------------------------5----|----|
C|--4-2-4--4-4-4--4-2-4--4-5-5--4-2-4--4-4-4--4-2-4--5-5--|-4--|
G|--4-2-4--4-4-4--4-2-4--4-5-5--4-2-4--4-4-4--4-2-4--3-5--|-4--|
D|--2-0-2--2-2-2--2-0-2--2-3-3--2-0-2--2-2-2--2-0-2----3--|-2--|
           . . .                       . . .
Related for Lowest Of The Low tab