Guitaretab - guitar tabs
Song name
# A B C D E F G H I J K L M N O P Q R S T U V W X Y Z

Terrorgruppe - Cdu tab

CDU 
(auf: Nonstopaggropop) 

<Über den Tabs stehen jeweils die Akkorde, die Gitarre 2 spielt>

Intro Teil I/Outro:
   E5                
H --------------------
G --------------------
D ------7--6-----(3x)-
A -7-7-------7-9------
E --------------------

Intro Teil II:

C5 D5  E5 F#5 D5 A5  C5 D5 
H -----------------------------
G -5-7---9--11--7--10---5-7----
D -5-7---9--11--7---9---5-7----
A -3-5---7---9--5---7---3-5----
E -----------------------------

Chorus: C5 D5
(die letzten beiden Male spielt Gitarre 1 beim Chorus folgenden Riff:)

   E5(7.)
E -------------------
H ---------8888------
G -7-777-7------7-77-

Verse: E5 (PM) D5

Fill-In 1 (beim zweiten Chorus):
[ Tab from: http://www.guitaretab.com/t/terrorgruppe/48590.html ]
E ----------------------------------------
H ---------7-7-7-77---------10-10-101010--
G -9-9-999----------7-7-777---------------

Bridge:

    H5   A5        E5(7.)A5   
G -------9-8-------------------------------
D --9-9------9-11---9-9--9--7--6--7--(3x)--
A -----------------------------------------


C5 
Jesus liebt mich 
D5
Und dich nicht 
Jesus liebt mich 
Und dich nicht 

E5       D5
  Hey du alter Penner, 
E5                  D5
Schläfst du gut auf deiner Parkbank? 
Siehst "gut" aus, 
hungrig krank 

Hast wohl keine Kohle, 
Sozi hat dein Geld gesperrt... 
Mit Arbeit wär' das nicht passiert... 

H5 A5
Du liegst im Dunkeln... 
E5     A5
...ich steh im Licht - 
C5               D5
Jesus liebt mich und dich nicht! 

Hey du kleiner Perser, 
Bist übers falsche Land geflogen... 
...morgen wirst du abgeschoben 


---
Mehr Terrorgruppe-Tabs auf
 http://listen.to/terrorgruppe/
Related for Cdu tab
Advertisement will be closed in 10 seconds