Song name
# A B C D E F G H I J K L M N O P Q R S T U V W X Y Z

Terrorgruppe - Kinderwaschin tab

E|------------------------------------------------------------------|
H|-------------------------------------------------10 7-7-----------|
G|9 9 11h 9 11 9 7 9 7-7-----------9 9 11h 9 11 9 7----9------------|
D|--------------------9---------------------------------------------|
A|------------------------------------------------------------------|
E|------------------------------------------------------------------|


E|------------------------------------------------------------------|
H|------------------------------------------------------------------|
G|9 9 11h 9 11 9 7 9 7-7-----------9 9 11h 9 9 7--------------------|
D|--------------------9---------------------------------------------|
A|------------------------------------------------------------------|
E|------------------------------------------------------------------|
Tap to rate this tab
# A B C D E F G H I J K L M N O P Q R S T U V W X Y Z