Guitaretab - guitar tabs
Song name
# A B C D E F G H I J K L M N O P Q R S T U V W X Y Z

Terrorgruppe - Ernst August tab

Terrorgruppe

Ernst August


chorus:
			Ernst August!
|-----------------------------------|
|-----------------------------------|
|-99-xxx-44-xxx-55-xxx-2~~----------|
|-99-xxx-44-xxx-55-xxx-2~~----------|
|-77-xxx-22-xxx-33-xxx-0~~----------|
|-----------------------------------|

Verse:
pm................................
|-----------------------------------|
|-----------------------------------|
|-99-xxx-44-xxx-55-xxx-222x2222x2---|
|-99-xxx-44-xxx-55-xxx-222x2222x2---|
|-77-xxx-22-xxx-33-xxx-022x2222x2---|
|-----------------------------------|


Interlude:
[ Tab from: http://www.guitaretab.com/t/terrorgruppe/80583.html ]
|---------------------------------------|
|---------------------------------------|
|-5~---7~---4~---9~-------------5~---7~-|
|-5~---7~---4~---9~---5~---7~---5~---7~-|
|-3~---5~---2~---7~---5~---7~---3~---5~-|
|---------------------3~---5~-----------|


Interlude2:

|---------------------------------------|
|---------------------------------------|
|-9~------7~------6~-------5~-----------|
|-9~------7~------6~-------5~-----------|
|-7~------5~------4~-------3~-----------|
|---------------------------------------|



Chorus      3x
verse       4x
interlude   1x
chorus      4x
verse       4x  (solo)
Interlude2  4x
Interlude   2x  (first time: pm)
chorus      4x
Related for Ernst August tab
Ernst August chords by Terrorgruppe