Song name
# A B C D E F G H I J K L M N O P Q R S T U V W X Y Z

Terrorgruppe - Namen Vergessen tab

Terrorgruppe


Namen vergessen


  C           F   Eb  F
|-------------------------------|
|-------------------------------|
|-5-5-5-5-5-5-10-888810101010---|
|-5-5-5-5-5-5-10-888810101010---|
|-3-3-3-3-3-3--8-6666-8-8-8-8---|
|-------------------------------|

    A        F             C       E

|------------------------------------------|
|------------------------------------------|
|-----------101010101010---555555--999999--|
|--7-7-7777-101010101010---555555--999999--|
|--7-7-7777--8-8-8-8-8-8---333333--777777--|
|--5-5-5555--------------------------------|

   A  F       E    C 
|--------------------------|
|--------------------------|
|-----10--10--999--5--5----|
|--77710--10--999--5--5----|
|--777-8---8--777--3--3----|
|--555---------------------|
Tap to rate this tab
# A B C D E F G H I J K L M N O P Q R S T U V W X Y Z