Guitaretab - guitar tabs
Song name
# A B C D E F G H I J K L M N O P Q R S T U V W X Y Z

Terrorgruppe - Sabine tab

Sabine

Intro:

G~  B~  C~  D#~    repeat 5x
  after 2x, Git 2:
e    -----------------------------------------------|
H    -----------------------------------------------|
G    -14-12-12-14-12-12-14-12-12-10-12-12-----------|
D    --x--x--x--x--x--x--x--x--x--x--x--x   repeat--| 3x
A    -12-10-10-12-10-10-12-10-10--8-10-10-----------|
E    -----------------------------------------------|

then: G  D  D#  B  G


Verse 1:
  D	     D# 		     B
Sabine, du hast mein Geld geklaut
     G  	 	     D
Mein letztes Hasch verbaut
    D#		B
Die Wohnung eingesaut

Chorus:
	   G			   B	    C	    G
Du dumme Koksschlampe  nanananananananaah!
			B	C~      G
Koksschlampe  nananananaah!

Verse 2:
  D	     D#		B
Sabine, du hast mich angelogen
    G		   D
Die Freunde abgezogen
	   D#		    B
Mich mit jedem Depp betrogen

Chorus:
	   G			   B	    C	    G
Du dumme Koksschlampe  nanananananananaah!
			B	C      G
Koksschlampe  nanananananananaah!
			B	C      G
Koksschlampe  nanananananananaah!
			B	C~     G
Koksschlampe  nananananaah!

Solo:

Git 2: G  B  C  D#    G  B  C  D#
[ Tab from: http://www.guitaretab.com/t/terrorgruppe/80585.html ]
	-------------------------------8------------------------------------------|
	-10-8----8p------------8-10-10---10-8----8--------------------------------|
	------10----10h-10-7-8----------------10---10-7---------------------------|
	------------------------------------------------10p8------10p8-10p8-------|
	----------------------------------------------------10-10-----------10-10-|
	--------------------------------------------------------------------------|

	--------------------------------------------------------------------------------|
	--------------------------------------------------------------------10-8--------|
	----------------------------------------------------------7-10-7-10--------10-7-|
	-10p8-------10p8-10p8-------10p8-------10p8-10p8-------10-----------------------|
	------10-10-----------10-10------10-10-----------10-10--------------------------|
	--------------------------------------------------------------------------------|

Chorus:

	   G			   B	    C	    G
Du dumme Koksschlampe  nanananananananaah!
			B	C~      G
Koksschlampe  nananananaah!

repeat the intro!


Verse 3:
G~
Ganz alleine sitz ich hier
B~
Sitze hier und vegetier
C~
Vegetiere vor mich hin
D#~
Wo ist nur Sabine hin?
G~
Wo ist nur Sabine hin?
B~
Wo ist nur Sabine hin?
C~		D#
Jaah, hin!

Chorus:
G			B	C	 G
Koksschlampe  nanananananananaah!
			B	C      G
Koksschlampe  nanananananananaah!
			B	C      G
Koksschlampe  nanananananananaah!
			B	C~     G
Koksschlampe  nananananaah!

fade out
A A A
Related for Sabine tab