Song name
# A B C D E F G H I J K L M N O P Q R S T U V W X Y Z

Terrorizer - Fear Of Napalm tab

-----------------------------------------------------
           FEAR OF NAPALM by Terrorizer
-----------------------------------------------------
Tabbed by: T.J. Stimola (HYPERZEPHARIAN)
Email: tstimola@gmail.com

Tuning: D Tuning (1 Step Down)




RIFF 1/SECTION 1

Riff 1a
d|-------------------------------------|
A|-------------------------------------|
F|-------------------------------------|
C|-------------------------------------|
G|-2-2-2-3-2-2-2-5---------6-8-6-8-----|
D|-0-0-0-1-0-0-0-3-0-0-0-005-6-5-6-----|

  |1   2   3   4  |1   2   3   4  

Riff 1b
d|-------------------------------------|
A|-------------------------------------|
F|-------------------------------------|
C|-------------------------------------|
G|-2-------------3-2-------------3-----|
D|-0-----003-1-3---0-----003-1-3-------|
         ... . .         ... . .
  |1   2   3   4  |1   2   3   4  

d|--------------------------------|-------|
A|--------------------------------|-------|
F|--------------------------------|-------|
C|--------------------------------|-------|
G|-2-------------3-2-------8-\-5--|7-5-3--|
D|-0-----003-1-3---0-----006-\-3--|5-3-1--|
         ... . .         ..  
  |1   2   3   4  |1   2   3   4  |1   2 




RIFF 2/SECTION2

/*--------Riff 2a
/*!SPEED UP!*
d|-------------------------------------|
A|-------------------------------------|
F|-------------------------------------|
C|-------------------------------------|
G|-3\\\2---3\\\2---3\\\2---4---4-------|
D|-1\\\0---1\\\0---1\\\0---2---2-------|

  |1   2   3   4  |1   2   3   4  

/*--------Riff 2b

d|-------------------------------------|
A|-------------------------------------|
F|-------------------------------------|
C|-------------------------------------|
G|----------222333---------5-7-8-------|
D|-22222222--------333333333-5-6-------|

  |1   2   3   4  |1   2   3   4  




Riff 3/Section 3

/*--------Riff 3a

d|-----------------------------------|
A|-----------------------------------|
F|-----------------------------------|
C|-----------------------------------|
G|-2---2-------------------3---5-----|
D|-0---0---0-1-3-0-1-3-0---1---3-----|
***Pick all notes  for best result!***
  |1   2   3   4  |1   2   3   4  

/*--------Riff 3b

d|-----------------------------------|
A|-----------------------------------|
F|-----------------------------------|
C|-4---------------------------------|
G|-2-----------4---3-----------------|
D|-------------2---1-----------------|

  |1   2   3   4  |1   2   3   4  

d|-----------------------------------|
A|-----------------------------------|
F|-----------------------------------|
C|-5---------------------------------|
G|-3-----------5---4-----------------|
D|-------------3---2-----------------|

  |1   2   3   4  |1   2   3   4  


Outro Riff

d|-----------------------------------|
A|-----------------------------------|
F|-----------------------------------|
C|-----------------------------------|
G|-222222222222----------------------|
D|-------------22222111111111111111--|

  |1   2   3   4  |1   2   3   4  

d|-----------------------------------|
A|-----------------------------------|
F|-----------------------------------|
C|-----------------------------------|
G|-333333333333----------------------|
D|-------------33332222222222222222--|

  |1   2   3   4  |1   2   3   4  


End Riff

d|---------|
A|---------|
F|---------|
C|-2---2---|
G|-2---2---|
D|-0---0---|

  |1   2   |


Order:

[Bass Intro]  x1
Riff 1a       x5
Riff 1b       x2

Riff 1a       x6
Riff 1b       x2

Riff 2a       x10
Riff 2b       x4
Riff 2a       x10
Riff 2b       x4

Riff 3a       x6
Riff 3b       x4
Riff 3a       x6
Riff 3b       x4

Outro Riff    x2

[End Riff]    x1

If there are any errors in this tab, listen to the
sogn and try to fix them for yourself, but overall,
this tab should be extremely accurate!

And you're welcome.
Tap to rate this tab
# A B C D E F G H I J K L M N O P Q R S T U V W X Y Z