Song name
# A B C D E F G H I J K L M N O P Q R S T U V W X Y Z

Terrorvision - Goldmine Jamjar tab

-------------------------------------------------------------------------------
			     Goldmine Jamjar - Terrorvision
-------------------------------------------------------------------------------
Tabbed by:
Email:FreakinFrankInstone@live.co.uk

Tuning:Standard

Verse (v.light distortion)

       E             G#             A                  B    
e|-----0---------------4-4-4------------5-5-5-|     e|-7-|
B|-----0------0p-------4-4-4------------5-5-5-|     B|-7-|
G|-----1-1-2h-1p-------5-5-5------------6-6-6-| X3  G|-8-| Play this chord
D|-----2---------------6-6-6------------7-7-7-|     D|-9-| for 2 BARS
A|-----2---------------6-6-6------------7-7-7-|     A|-9-|
E|-0-0-0-------------4-4-4-4--------5-5-5-5-5-|     E|-7-|
   
   Wrote a new song, just the other day...

Chorus (heavier distortion)

   E     G     C       B
e|-0-0---3-3---8--8----7-7-|
B|-0-0---3-3---8--8----7-7-|
G|-1-1---4-4---9--9----8-8-| X2
D|-2-2---5-5---10-10---9-9-|
A|-2-2---5-5---10-10---9-9-|
E|-0-0---3-3---8--8----7-7-|

2nd Verse strum the chord progression from 1st verse with heavier distortion

Chorus X4

Bridge

   E A#  G E
e|-7-6---3-0-|
B|-9-6---3-0-|
G|-9-7---4-1-| X4
D|-9-8---5-2-|
A|-7-8---5-2-|
E|-7-6---3-0-|

Chorus X6

e|-----------------|
B|-----------------|
G|-----------------| To Fade.
D|-----------------|
A|-----------------|
E|-12--\6----3--\0-|

This is only the rhythm & lacks some twiddly bits over the top, but it is my first tab!


************************************

| /   slide up
| \   slide down
| h   hammer-on
| p   pull-off
| ~   vibrato
| +   harmonic
| x   Mute note
| b   Bend
| pb  Pre-bend
| br  Bend release
| pbr Pre-bend release
| brb Bend release bend

************************************
Tap to rate this tab
 
# A B C D E F G H I J K L M N O P Q R S T U V W X Y Z