Terrorvision - Ten Shades Of Grey tab

Ten shades of grey by Terrorvision
From How to make friends and influence people album

tab by marcos.nagato@gmail.com

-- author's note --
Nice little song that I couldn't believe no one ever tabbed!

Hope y'all enjoy!!
-------------------

Standard tuning


Intro:
  Bb           A7            G#      G7
|-------6-----------------------4----------------|
|-------6-----------8-----------4---------6------|
|-----------------6---6-----------------4---4----|
|-----------------------7---------------------5--| (2x)
|--8-----------7-------------6-------5-----------|
|--6-----------5-------------4-------3-----------|

   Bb            G            G#           F
|---------6------------3------------4------------1------|
|-------6---6--------3---3--------4---4--------1---1----|
|-----7-------7----4-------4----5-------5----2-------2--|
|-------------------------------------------------------| (2x)
|-------------------------------------------------------|
|--6-------------3------------4------------1------------|

Verse:
   Bb         G          G#         F
|-------6----------3----------4-----------1------|
|-------6----------3----------4---------1---1----|
|-------------------------------------2-------2--|
|------------------------------------------------| (2x)
|--8----------5----------6-----------------------|
|--6----------3----------4----------1------------|

|---------------------------------|
|---------------------------------|
|---------------------------------|
|---------------------------------|
|--------4-5-6----6-6-4-----------|
|--6~--6----------------6~---4-1--|

(play all again, then to)

Bridge 1:
G#                        C                     C#                        G    Gm
  And the light from the candle goes dim as I slip deeper down from the brim

|--7-----7-----7-----7-----7-----7-----7-----7------|
|----8-----8-----8-----8-----8-----8-----8-----8----|
|------7-----7-----7-----7-----7-----7-----7-----7--|
|---------------------------------------------------|
|---------------------------------------------------|
|---------------------------------------------------|

Solo: (rhythm is same as verse, use delay)
  Bb          G        G#                   F
|-----------------------------------------------8-11br------
|----6-9--------------------------------8~-11b~--------6~---
|-8b-----8b---5br-br---------------8-10---------------------
|--------------------5~-------8-10--------------------------
|-------------------------/10-------------------------------
|-----------------------------------------------------------
  Bb      G        G#      F
------------------------------13\--|
----11\-------8\------9\-----------|
--------------------------10\------|
--8\------5\-------6\--------------|
-----------------------------------|
-----------------------------------|

Bridge 2:
G#                        C                     C#                        Eb
  And the light from the candle goes dim as I slip deeper down from the brim

Last verse ("The people are fadin' away"):

   Bb         G          G#         F
|-------6----------3----------4-----------1------|
|-------6----------3----------4---------1---1----|
|-------------------------------------2-------2--|
|------------------------------------------------|
|--8----------5----------6-----------------------|
|--6----------3----------4----------1------------|

"If I don't last this one"
   Bb            G            G#           F
|---------6------------3------------4------------1------|
|-------6---6--------3---3--------4---4--------1---1----|
|-----7-------7----4-------4----5-------5----2-------2--|
|-------------------------------------------------------|
|-------------------------------------------------------|
|--6-------------3------------4------------1------------|

|---------------------------------|
|---------------------------------|
|---------------------------------|
|---------------------------------| (2x)
|--------4-5-6----6-6-4-----------|
|--6~--6----------------6~---4-1--|

             G#                  Bb
"incredible fun"

(orchestrated part)
|-------------------------------------|
|------------9----8-------------------|
|---------------------10----8----7----|
|------------6----5-------------------|
|----------------------8----6----5----|
|-------------------------------------|

Tap to rate this tab
 
# A B C D E F G H I J K L M N O P Q R S T U V W X Y Z