Terrorvision - Still The Rhythm tab

                                STILL THE RHYTHM
                           As recorded by Terrorvision
         (From the 1995 Album HOW TO MAKE FRIENDS AND INFLUENCE PEOPLE)

Words by Terrorvision
Music by Terrorvison
Arranged by Terrorvision
Transcribed by Rohan Chadwick
Adapted by Marcos F. Nagato (marcos.nagato@gmail.com)

-- note --

I'm re-submitting this tab since, compared to the power tab available out there, my 
version has a couple of significant

differences, on which I believe mine are correct.

The whole song also sounds to me just a little off in key, which gives us some trouble 
figuring out some parts, but I believe
the end result should work fine.

----------


Gtr I (E A D G B E) - 'Guit. 1'
Gtr II (E A D G B E) - 'Guit. 2'
Gtr III (E A D G B E) - 'Lead Guit'

 Intro
  Q=130
  N.C.
 4/4
  Gtr I
  Q  E Q  E E E   Q  E Q    E E E   Q  E Q  E E E   Q  E Q    E E E
|---------------|-----------------|---------------|-----------------|
|---------------|-----------------|---------------|-----------------|
|-2--0-2--0-2-5-|-7--5-7b9--7-7-5-|-2--0-2--0-2-5-|-7--5-7b9--7-7-5-|
|-2--0-2--0-2-5-|-7--5-7b9--7-7-5-|-2--0-2--0-2-5-|-7--5-7b9--7-7-5-|
|---------------|-----------------|---------------|-----------------|
|---------------|-----------------|---------------|-----------------|

   Verse
    N.C.
    Q  E Q  E E E   Q  E Q    E E E   Q  E Q  E E E   Q  E Q    E E E
||----------------|-----------------|---------------|------------------|
||o---------------|-----------------|---------------|------------------|
||--2--0-2--0-2-5-|-7--5-7b9--7-7-5-|-2--0-2--0-2-5-|-7--5-7b9--7-7-5--|
||--2--0-2--0-2-5-|-7--5-7b9--7-7-5-|-2--0-2--0-2-5-|-7--5-7b9--7-7-5--|
||o---------------|-----------------|---------------|------------------|
||----------------|-----------------|---------------|------------------|


  N.C.                                                           Bb
  Q  E Q  E E E   Q  E Q    E E E   Q  E Q  E E E   q  H    Q    W
|---------------|-----------------|---------------|------------|-1-----||
|---------------|-----------------|---------------|------------|-3----o||
|-2--0-2--0-2-5-|-7--5-7b9--7-7-5-|-2--0-2--0-2-5-|-7----------|-3-----||
|-2--0-2--0-2-5-|-7--5-7b9--7-7-5-|-2--0-2--0-2-5-|-7----------|-3-----||
|---------------|-----------------|---------------|-5----------|-1----o||
|---------------|-----------------|---------------|------------|-------||


 Chorus
  N.C.
  Gtr II
  Q  E Q  E E E   Q  E Q    E E E   Q  E Q  E E E   Q  E Q    E E E
|---------------|-----------------|---------------|-----------------|
|---------------|-----------------|---------------|-----------------|
|-2--0-2--0-2-5-|-7--5-7b9--7-7-5-|-2--0-2--0-2-5-|-7--5-7b9--7-7-5-|
|-2--0-2--0-2-5-|-7--5-7b9--7-7-5-|-2--0-2--0-2-5-|-7--5-7b9--7-7-5-|
|---------------|-----------------|---------------|-----------------|
|---------------|-----------------|---------------|-----------------|


  N.C.
  Q  E Q  E E E   Q  E Q    E E E   Q  E Q  E E E   q  H    Q
|---------------|-----------------|---------------|------------|
|---------------|-----------------|---------------|------------|
|-2--0-2--0-2-5-|-7--5-7b9--7-7-5-|-2--0-2--0-2-5-|-7----------|
|-2--0-2--0-2-5-|-7--5-7b9--7-7-5-|-2--0-2--0-2-5-|-7----------|
|---------------|-----------------|---------------|------------|
|---------------|-----------------|---------------|------------|


 Pre Verse
  N.C.                                              Dm
  Gtr I
  Q  E Q  E E E   Q  E Q    E E E   Q  E Q  E E E    W           W
|---------------|-----------------|---------------|-^5--------|-!5----|
|---------------|-----------------|---------------|-^6--------|-!6----|
|-2--0-2--0-2-5-|-7--5-7b9--7-7-5-|-2--0-2--0-2-5-|-^7--------|-!7----|
|-2--0-2--0-2-5-|-7--5-7b9--7-7-5-|-2--0-2--0-2-5-|-^7--------|-!7----|
|---------------|-----------------|---------------|-^5--------|-!5----|
|---------------|-----------------|---------------|-----------|-------|


 Verse
  N.C.
  Q  E Q  E E E   Q  E Q    E E E   Q  E Q  E E E   Q  E Q    E E E
|---------------|-----------------|---------------|-----------------|
|---------------|-----------------|---------------|-----------------|
|-2--0-2--0-2-5-|-7--5-7b9--7-7-5-|-2--0-2--0-2-5-|-7--5-7b9--7-7-5-|
|-2--0-2--0-2-5-|-7--5-7b9--7-7-5-|-2--0-2--0-2-5-|-7--5-7b9--7-7-5-|
|---------------|-----------------|---------------|-----------------|
|---------------|-----------------|---------------|-----------------|


  N.C.                         Bb
  Q  E Q  E E E   q  H    Q    W
|---------------|------------|-1----|
|---------------|------------|-3----|
|-2--0-2--0-2-5-|-7----------|-3----|
|-2--0-2--0-2-5-|-7----------|-3----|
|---------------|------------|-1----|
|---------------|------------|------|


  N.C.
  Q  E Q  E E E   Q  E Q    E E E   Q  E Q  E E E   Q  E Q    E E E
|---------------|-----------------|---------------|-----------------|
|---------------|-----------------|---------------|-----------------|
|-2--0-2--0-2-5-|-7--5-7b9--7-7-5-|-2--0-2--0-2-5-|-7--5-7b9--7-7-5-|
|-2--0-2--0-2-5-|-7--5-7b9--7-7-5-|-2--0-2--0-2-5-|-7--5-7b9--7-7-5-|
|---------------|-----------------|---------------|-----------------|
|---------------|-----------------|---------------|-----------------|


  N.C.                                                           Bb
  Q  E Q  E E E   Q  E Q    E E E   Q  E Q  E E E   q  H    Q    W
|---------------|-----------------|---------------|------------|-1----|
|---------------|-----------------|---------------|------------|-3----|
|-2--0-2--0-2-5-|-7--5-7b9--7-7-5-|-2--0-2--0-2-5-|-7----------|-3----|
|-2--0-2--0-2-5-|-7--5-7b9--7-7-5-|-2--0-2--0-2-5-|-7----------|-3----|
|---------------|-----------------|---------------|------------|-1----|
|---------------|-----------------|---------------|------------|------|


 Chorus
  N.C.
  Gtr II
  Q  E Q  E E E   Q  E Q    E E E   Q  E Q  E E E   Q  E Q    E E E
|---------------|-----------------|---------------|-----------------|
|---------------|-----------------|---------------|-----------------|
|-2--0-2--0-2-5-|-7--5-7b9--7-7-5-|-2--0-2--0-2-5-|-7--5-7b9--7-7-5-|
|-2--0-2--0-2-5-|-7--5-7b9--7-7-5-|-2--0-2--0-2-5-|-7--5-7b9--7-7-5-|
|---------------|-----------------|---------------|-----------------|
|---------------|-----------------|---------------|-----------------|


  N.C.
  Gtr III
  W               W                 W
|---------------|-----------------|---------------|
|---------------|-----------------|---------------|
|---------------|-----------------|---------------|
|---------------|-----------------|---------------|
|---------------|-----------------|---------------|
|---------------|-----------------|---------------|
|
| Gtr II
| Q  E Q  E E E   Q  E Q    E E E   Q  E Q  E E E
|---------------|-----------------|---------------|
|---------------|-----------------|---------------|
|-2--0-2--0-2-5-|-7--5-7b9--7-7-5-|-2--0-2--0-2-5-|
|-2--0-2--0-2-5-|-7--5-7b9--7-7-5-|-2--0-2--0-2-5-|
|---------------|-----------------|---------------|
|---------------|-----------------|---------------|


  S S S S S S S S S S S S S S S S
|-5--------------------------------|
|-8b-------------------------------| (repeat note)
|----------------------------------|
|----------------------------------|
|----------------------------------|
|----------------------------------|

 Solo
  N.C.
  E Q   E Q   E E   E Q   E   Q   E E   E Q   E Q   E E   E Q   E   Q   Q
|-----------------|-------------------|-----------------|--------------------|
|-7-5---7-5-------|-7-5---7---5-------|-7-5---7-5-------|-7-5---7---5--------|
|-7-5---7-5---7-5-|-7-5---7---5---7-5-|-7-5---7-5---7-5-|-7-5---7---5---x\---|
|-------------7-5-|---------------7-5-|-------------7-5-|--------------------|
|-----------------|-------------------|-----------------|--------------------|
|-----------------|-------------------|-----------------|--------------------|
|
| Q   E Q   E E E   Q   E Q     E E E   Q   E Q   E E E   Q   E Q     E E  E
|-----------------|-------------------|-----------------|--------------------|
|-----------------|-------------------|-----------------|--------------------|
|-2---0-2---0-2-5-|-7---5-7b9---7-7-5-|-2---0-2---0-2-5-|-7---5-7b9---7-7--5-|
|-2---0-2---0-2-5-|-7---5-7b9---7-7-5-|-2---0-2---0-2-5-|-7---5-7b9---7-7--5-|
|-----------------|-------------------|-----------------|--------------------|
|-----------------|-------------------|-----------------|--------------------|

  N.C.
  E   Q   E   Q   E   E   E   Q   E   H
|-----------------------|---------------------|
|-5-------5-------5-----|-5-------5-----------|
|-7b9r7---7b9r7---7b9r7-|-7b9r7---7b9r7-------|
|-----------------------|---------------------|
|-----------------------|---------------------|
|-----------------------|---------------------|
|
| Q     E Q     E E   E   Q     E Q     E E E
|-----------------------|---------------------|
|-----------------------|---------------------|
|-2-----0-2-----0-2---5-|-7-----5-7b9---7-7-5-|
|-2-----0-2-----0-2---5-|-7-----5-7b9---7-7-5-|
|-----------------------|---------------------|
|-----------------------|---------------------|

|-5----------7----------8---------10--------------|
|-8b--------10b--------11b--------13b-------------|
|-------------------------------------------------|
|-------------------------------------------------|
|-------------------------------------------------|
|-------------------------------------------------|


   Bridge
                                                           1.
    E5                          G        E5                          F
    Gtr II
    E E E E E E E E   E E E E e Q  +E    E E E E E E E E   E E E E e Q  +E
||------------------|------------------|-----------------|--------------------||
||o-----------------|------------------|-----------------|-------------------o||
||------------------|-----------4--(4)-|-----------------|-----------2--(2)---||
||--2-2-2-2-2-2-2-2-|-2-2-2-2-2-5--(5)-|-2-2-2-2-2-2-2-2-|-2-2-2-2-2-3--(3)---||
||o-2-2-2-2-2-2-2-2-|-2-2-2-2-2-5--(5)-|-2-2-2-2-2-2-2-2-|-2-2-2-2-2-3--(3)--o||
||--0-0-0-0-0-0-0-0-|-0-0-0-0-0-3--(3)-|-0-0-0-0-0-0-0-0-|-0-0-0-0-0-1--(1)---||

                    Out-Chorus
  2.
  A                  N.C.
  E E E E. E. Q      Q  E Q  E E E   Q  E Q    E E E
|----------------||----------------|-----------------|
|----------------||o---------------|-----------------|
|----------------||--2--0-2--0-2-5-|-7--5-7b9--7-7-5-|
|----------------||--2--0-2--0-2-5-|-7--5-7b9--7-7-5-|
|-7-7-7----------||o---------------|-----------------|
|--------6-3-0---||----------------|-----------------|


  Q  E Q  E E E   Q  E Q    E E E
|---------------|-------------------||
|---------------|------------------o||
|-2--0-2--0-2-5-|-7--5-7b9--7-7-5---||
|-2--0-2--0-2-5-|-7--5-7b9--7-7-5---||
|---------------|------------------o||
|---------------|-------------------||


   Interlude
    Am            Dm7           Am            Dm7
    Q.   E H      Q.   E H      Q.   E H      Q.   E H
||--0------0----|-5------5----|-0------0----|-5------5-----||
||o-1------1----|-6------6----|-1------1----|-6------6----o||
||--2------2----|-5------5----|-2------2----|-5------5-----||
||--2------2----|-7------7----|-2------2----|-7------7-----||
||o-0------0----|-5------5----|-0------0----|-5------5----o||
||--------------|-------------|-------------|--------------||


   Bridge
                                                           1.
    E5                          G        E5                          F
    Gtr II
    E E E E E E E E   E E E E e Q  +E    E E E E E E E E   E E E E e Q  +E
||------------------|------------------|-----------------|--------------------||
||o-----------------|------------------|-----------------|-------------------o||
||------------------|-----------4--(4)-|-----------------|-----------2--(2)---||
||--2-2-2-2-2-2-2-2-|-2-2-2-2-2-5--(5)-|-2-2-2-2-2-2-2-2-|-2-2-2-2-2-3--(3)---||
||o-2-2-2-2-2-2-2-2-|-2-2-2-2-2-5--(5)-|-2-2-2-2-2-2-2-2-|-2-2-2-2-2-3--(3)--o||
||--0-0-0-0-0-0-0-0-|-0-0-0-0-0-3--(3)-|-0-0-0-0-0-0-0-0-|-0-0-0-0-0-1--(1)---||


  2.
  A
  E E E E. E. Q
|----------------||--1-------------|-----------------|
|----------------||--1-------------|-----------------|
|----------------||--2-------------|-----------------|
|----------------||--3-------------|-----------------|
|-7-7-7----------||--3-------------|-----------------|
|--------6-3-0---||--1-------------|-----------------|

|-----------------------------------------------------------------------------|
|------5-----5-----5-----5-----5-5/6-----6-----6------6-----6-----6-6\5---5---|
|----4-----4-----4-----4-----4---4/5---------5------5-----5-----5-5-5\4-------| (repeat 
and fade)
|--2-----2-----2-----2-----2---------3-----3------3-----3-----3---------2-----|
|-----------------------------------------------------------------------------|
|-----------------------------------------------------------------------------|


Duration Legend
---------------
W - whole; H - half; Q - quarter; E - 8th; S - 16th; T - 32nd; X - 64th; a - acciaccatura
+ - note tied to previous; . - note dotted; .. - note double dotted
Uncapitalized letters represent notes that are staccato (1/2 duration)
Irregular groupings are notated above the duration line
Duration letters will always appear directly above the note/fret number it represents the
duration for.  Duration letters with no fret number below them represent rests.  Multi-
bar rests are notated in the form Wxn, where n is the number of bars to rest for.  Low
melody durations appear below the staff

Tablature Legend
----------------
 h   - hammer-on
 p   - pull-off
 b   - bend
 pb  - pre-bend
 r   - bend release (if no number after the r, then release immediately)
 /\  - slide into or out of (from/to "nowhere")
 s   - legato slide
 S   - shift slide
  - natural harmonic
[n]  - artificial harmonic
n(n) - tapped harmonic
 ~   - vibrato
 tr  - trill
 T   - tap
 TP  - trem. picking
 PM  - palm muting
\n/  - tremolo bar dip; n = amount to dip
 \n  - tremolo bar down
 n/  - tremolo bar up
/n\  - tremolo bar inverted dip
 =   - hold bend; also acts as connecting device for hammers/pulls
 <>  - volume swell (louder/softer)
 x   - on rhythm slash represents muted slash
 o   - on rhythm slash represents single note slash

Misc Legend
-----------
 |  - bar
||  - double bar
||o - repeat start
o|| - repeat end
*|  - double bar (ending)
 :  - bar (freetime)
 $  - Segno
 &  - Coda
Tempo markers -  = BPM(8/16=s8/s16), where s8 = swing 8ths, s16 = swing 16ths


***************************************************************************************
* Generated using Power Tab Editor by Brad Larsen - http://powertab.guitarnetwork.org *
***************************************************************************************
Tap to rate this tab
 
# A B C D E F G H I J K L M N O P Q R S T U V W X Y Z