Song name
# A B C D E F G H I J K L M N O P Q R S T U V W X Y Z

Terrorvision - 3 Wishes tab

----------------------------------------------------------------------------
3 Wishes - Terrorvision
Tabbed by Gary Billington
Website:  www.jimdidntfixitforme.co.uk
----------------------------------------------------------------------------

1st solo

e|-------------------------------------------------------------------------|
B|-------------------------------------------------------------------------|
G|-------5--------5-------------5------------------------------------------|
D|-----5---7--7-5---7--5-7--7-5---7-----------5-------------5--------------|
A|-5-7-------------------------------5-7--7-5---7--5-7--7-5---7------------|
E|-------------------------------------------------------------------------|

e|-------------------------------------------------------------------------|
B|-------------------------------------------------------------------------|
G|-------------------------------------------------------------------------|
D|-------------------------------------------------------------------------|
A|----------5-------------5------------------------------------------------|
E|-5-7--7-5---7--5-7--7-5---5---2---4--------------------------------------|


2nd solo

e|-------------------------------------------------------------------------|
B|-------------------------------------------------------------------------|
G|-------5--------5-------------5------------------------------------------|
D|-----5---7--7-5---7--5-7--7-5---7-----------5-------------5--------------|
A|-5-7-------------------------------5-7--7-5---7--5-7--7-5---7------------|
E|-------------------------------------------------------------------------|

e|-------------------------------------------------------------------------|
B|-------------------------------------------------------------------------|
G|-----------------------------9b11-9b11-9b11-9b11-11b13-11b13-11b13-11b13-|
D|-------------------------------------------------------------------------|
A|----------5-------------5------------------------------------------------|
E|-5-7--7-5---7--5-7--7-5---5----------------------------------------------|


3rd solo

Repeat 2nd solo, then:

e|-------------------------------------------------------------------------|
B|-------------------------------------------------------------------------|
G|-------5--------5-------------5-------------5-------------5--------------|
D|-----5---7--7-5---7--5-7--7-5---7--5-7--7-5---7--5-7--7-5---7------------|
A|-5-7---------------------------------------------------------------------|
E|-------------------------------------------------------------------------|

e|-------------------------------------------------------------------------|
B|-------------------------------------------------------------------------|
G|----------5-------------5-----9b11-9b11-9b11-9b11-11b13-9b11-7b9-5b7-----|
D|-5-7--7-5---7--5-7--7-5---7----------------------------------------------|
A|-------------------------------------------------------------------------|
E|-------------------------------------------------------------------------|
Tap to rate this tab
# A B C D E F G H I J K L M N O P Q R S T U V W X Y Z