Song name
# A B C D E F G H I J K L M N O P Q R S T U V W X Y Z

Terrorvision - Pretend Best Friend tab

Ok dudes standard tuning for this one!!!
First TAB so don't eat me alive!!!

INTRO
e------------------------------------|
b-10-10-----10-10--------------------|
g-9--9------9--9---------------------|
d-7--7------7--7---------------------|
a-0--0--8-9-0--0--8-9--------7-------|
e---------------------0-0-8-9--8-7-6-|
CHORUS-
slight palm mute
e---------------------------------|
b---------------------------------|
g---------------------------------|
d-----------------2-2-------------|
a---------2-2---------3-3-2-2-----|
e-0-0-3-0-----3-2-------------3-3-|There you go the main guiyar parts for this catchy tune
Tap to rate this tab
# A B C D E F G H I J K L M N O P Q R S T U V W X Y Z