Song name
# A B C D E F G H I J K L M N O P Q R S T U V W X Y Z

Terry Callier - What Color Is Love chords

Highlighted       Show chord diagrams
what color is love
terry callier

tabbed by mokra@freenetname.co.uk
Oct 2010

Am variation             Em variation
E---0------------------------0--------|
B---1------------------------0--------|
G---4------------------------0--------|
D---2------------------------4--------|
A---0------------------------2--------|
E----------------------------0--------|

  Cmaj7         Cm           G
E-------------------------------------|
B----0-----------1-----------0--------|
G----0-----------0-----------0--------|
D----2-----------1-----------0--------|
A----3-----------3-----------2--------|
E----------------------------3--------|


Intro

E------------3----|
B-------3---------|
G------------4----|
D-------4---------|
A-----------------|
E------------0----|


Am
is it wrong or is it right
is it black or is it white
Bm/F#
what color is love

Am
is it here or is it there
is it really everywhere
Bm/F#
what color is love

G
is it strong like a mountains
or deep like a fountain
Cmaj7
is flowing free
Cm
and what about me

Em          Am
how can you receive
Em              Am    (Cm)
if you're not a believer

Am
is it blue like the sky
and does it really reach that high
Bm/F#
what color is love

Am
is it near or is it far
or is it distant like a star
Bm/F#
what color is love

G
does it glow like an ember
and do you remember
Cmaj7
if love doesn't last
Cm
does it live in the past

Em               Am
and heart cannot live
Em               Am   (Cm)
if a heart isn't giving

Am
when it's over
Bm/F#
does it show
Am
does it leave
Bm/F#
an afterglow

Am    Bm/F#          Cmaj7
and i really want to know

what color is love


Em
Tap to rate this tab
 
# A B C D E F G H I J K L M N O P Q R S T U V W X Y Z