Song name
# A B C D E F G H I J K L M N O P Q R S T U V W X Y Z

Terry Reid - Marking Time tab

--------------------------------------------------------------------------------------------------

                             Terry Reid - Marking Time - Terry Reid (1969)

--------------------------------------------------------------------------------------------------


INTRO & VERSE RIFF

e|------------------------|
B|------------------------|
G|-------5b---------------|
D|-5h7-7-------5h7-7-7-5b-|
A|---0-0---------0-0-0----|
E|------------------------|
   (A5)



(A5) x8


(A5)
Sat in my hands, sat in almost everything I own

(A5)
Birds wheeling high in the sky knowing which way to fly, which way to go



CHORUS CHORDS

e|-0--0--3--3-|
B|-2--1--0--0-|
G|-2--0--0--1-|
D|-2--2--0--2-|
A|-0--3--2--2-|
E|-------3--0-|
   A  C  G EaddG



A [let ring]
 Well I'm standing here

C [let ring]
 Just looking at the sea

G [let ring]                   EaddG         (A5)
 Trying to wonder whether this shit's for me not at all

(A5)
No one wants to change it


(A5)
Oo woh, so many people, so many people may sit around and moan

(A5)
But you'll not, you'll not, you're not gonna find it very far away from home


A
 I've been looking in

C
 Trying to realise

G                               E#9                  (A5)
 Wondering if there's something I could comprimise or not at all

(A5)
But nobody really wants to change it


A
 Call me anything

C
 Call me a fool

G                          E#9             (A5)
 Call me what you want but oh man just stay cool, stay cool, stay cool, woh



SOLO GUITAR BREAK

e|-17-17-17-17-|
B|-------------|
G|-------------| x16
D|-------------|
A|-------------|
E|-------------|
  (A5)



I'm sat here
Trying memorize
wondering whether, wondering whether to realise or not at all
But nobody really wants to weather the change


So many people sit and ask me why
But I just keep hold on to the seasons until the day I die


Sat down here
Trying realise
If it's really worth it or whether I should make up to the skies above if we know at all



SOLO GUITAR BREAK 2

e|-----------------------------|
B|-----------------------------|
G|-----------------------------|
D|-7---5h7p5-------------------|
A|-0----------8--7--5----------|
E|---------------------8--7--5-|



OUTRO CHORDS

e|-5--------1-|
B|-5--7--8--1-|
G|-6--7--8--2-|
D|-7--7--8--3-|
A|-7--5--6--3-|
E|-5--------1-|
   A  D Eb  F



A  D  Eb  F [let ring]



(Drum solo outro)







BLS
Tap to rate this tab
# A B C D E F G H I J K L M N O P Q R S T U V W X Y Z