Song name
# A B C D E F G H I J K L M N O P Q R S T U V W X Y Z

Terry Taylor - Potatoes Tomatoes Gravy And Peas tab

Help us improve GuitareTab! Take a short survey!
-------------------------------------------------------------------------------
	Potatoes, Tomatoes, Gravy, And Peas - Terry Scott Taylor
-------------------------------------------------------------------------------
http://en.wikipedia.org/wiki/Terry_Scott_Taylor

Tabbed by: fffoma@gmail.com

Chords:


    D7                    G
e|---------------------------------------------------------------------------|
B|------3--------------------3-----------------------------------------------|
G|----------5-------------------4----------------REPEAT-3-TIMES--------------|
D|-------------4-----4-------------5-----5-----------------------------------|
A|---5------------5-------------------5--------------------------------------|
E|------------------------3--------------------------------------------------|

       D7     C7          G
e|----------------------------------3----------------------------------------|
B|---0---3----------1--------------------------------------------------------|
G|---0---5----------3----------4----------4--------------REPEAT------FINE----|
D|-------4----------2-----5--------------------------------------------------|
A|-----5---------3----------------------------0------------------------------|
E|---------------------------3----3----3-------------------------------------|

   C7
e|---------------------------------------------------------------------------|
B|-----1------------------1-------------1------------------------------------|
G|-----------3-----3-------------3-------------3-------3---------------------|
D|---------------------------------------------------------------------------|
A|--3-----3-----3-----3------3-------3-----3-------3-------------------------|
E|---------------------------------------------------------------------------|

    G7
e|-----------1-------------------------1-------------------------------------|
B|------0-----------0------------0------------0------------------------------|
G|------------------------0-------------------------0--------REPEAT----------|
D|---------------------------------------------------------------------------|
A|---------------------------------------------------------------------------|
E|---3-----3----3------3------3-----3------3------3--------------------------|

      G#7  G7     D#7  D7
e|---------------------------------------------------------------------------|
B|-----4---3--------4---3----------------------------------------------------|
G|-----5---4--------6---5----------------REPEAT-FROM-BEGINNING-TO-FINE-------|
D|-----4---3--------5---4----------------------------------------------------|
A|-----6---5--------6---5----------------------------------------------------|
E|-----4---3-----------------------------------------------------------------|
Related for Potatoes Tomatoes Gravy And Peas tab