Song name
# A B C D E F G H I J K L M N O P Q R S T U V W X Y Z

Terry Winter - Summer Holiday tab

Help us improve GuitareTab! Take a short survey!
Song: Summer holliday
artist: terry winter
sayuri dominguez zarza               cualquier duda a:saayuri7@hotmail.com

e--7-7--10-7----7------------------------7-7--10-7----7-----------------------|
B------------10---8--10-10-13-10-8-10-7------------10---8-10----8-10-12-13-10-|
G------------------------------------------------------------10---------------|
D-----------------------------------------------------------------------------|
A-----------------------------------------------------------------------------|
E-----------------------------------------------------------------------------|


e--7-7--10-7----7------------------------------------------------------------|
B------------10---8-10----8-10-8---------------------------------------------|
G----------------------10--------10-12---------------------------------------|
D----------------------------------------------------------------------------|
A----------------------------------------------------------------------------|
E----------------------------------------------------------------------------|
Eso es todo mexico!!!
"All things must pass because this way my sweet lord say it"
Related for Summer Holiday tab