Terveet Kadet - Mina Haluan Paljon Rahaa tab

Riff 1
E---------------------------------------------------|
B---------------------------------------------------|
G---------------------------------------------------|
D---------------------------------------------------|
A--5--5--5--5--7--7--7--7--9--9--9--9--10-10-10-10--|
E--3--3--3--3--5--5--5--5--7--7--7--7--8--8--8--8---|

Riff 2
E--------------------------|
B--------------------------|
G--------------------------|
D--5--5--------7--7--7--7--|
A--3--3--5--5--5--5--5--5--|
E--------3--3--------------|

Riff 1 x4
Riff 2 x4
Riff 1 x4
Riff 2 x4
Tap to rate this tab
 
# A B C D E F G H I J K L M N O P Q R S T U V W X Y Z