Song name
# A B C D E F G H I J K L M N O P Q R S T U V W X Y Z

Tesla - Thank You tab

----------------------------------------------------------------------------
                            Thank You - TESLA
----------------------------------------------------------------------------

This is only the intro I'll do the rest of the song when I can figure it out. You can 
the song on their website at www.teslarealtoreel.com, its all the way at the right.
-JB


Gtr. 1

e|---2~-----3--2--0--2~----2--0--2------------------------------------------|
B|---3~-----3--3--3--3~----3--3--3------------------------------------------|
G|---2~-----2--2--2--2~----2--2--2------------------------------------------|
D|---0~-----0--0--0--0~----0--0--0------------------------------------------|
A|--------------------------------------------------------------------------|
E|--------------------------------------------------------------------------|


Gtr. 2

e|--------------------------------------------------------------------------|
B|--------------------------------------------------------------------------|
G|--------------------------------------------------------------------------|
D|---0h2--------------------------------------------------------------------|
A|---0h3--------------------------------------------------------------------|
E|--------------------------------------------------------------------------|


Gtr. 1

e|---3--2--0--2~----2--0--2-------------------------------------------------|
B|---3--3--3--3~----3--3--3-------------------------------------------------|
G|---2--2--2--2~----2--2--2-------------------------------------------------|
D|---0--0--0--0~----0--0--0-------------------------------------------------|
A|--------------------------------------------------------------------------|
E|--------------------------------------------------------------------------|


Gtr. 2

e|--------------------------------------------------------------------------|
B|--------------------------------------------------------------------------|
G|--------------------------------------------------------------------------|
D|---0h2--------------------------------------------------------------------|
A|---0h2--------------------------------------------------------------------|
E|--------------------------------------------------------------------------|


Gtr. 1

e|---3--2--0--2~----2--0--2-------------------------------------------------|
B|---3--3--3--3~----3--3--3-------------------------------------------------|
G|---2--2--2--2~----2--2--2-------------------------------------------------|
D|---0--0--0--0~----0--0--0-------------------------------------------------|
A|--------------------------------------------------------------------------|
E|--------------------------------------------------------------------------|


Gtr. 1 (NOTE: This part could be wrong in the number of chords, but the chords themselves are right)
v = Down stroke
^ = Up Stroke

     v  v   ^ v ^ v v
e|---2--2---2-3-3-3-3--------------------------------------------------------|
B|---3--3---3-3-3-3-3--------------------------------------------------------|
G|---2--2---2-2-2-2-2--------------------------------------------------------|
D|---0--0---0-0-0-0-0--------------------------------------------------------|
A|---------------------------------------------------------------------------|
E|---------------------------------------------------------------------------|

NOTE:1) This is only the rythym part
     2) You can play this part on one guitar, there doesn't have to be two.
Tap to rate this tab
# A B C D E F G H I J K L M N O P Q R S T U V W X Y Z