Song name
# A B C D E F G H I J K L M N O P Q R S T U V W X Y Z

Tesla - What You Give tab

What You Give Solo!! by Tesla. I looked and not one person a solo so far. So 
I tabbed it out and it sounds 99.9% correct to me!

Here's me playing the solo so you can get somewhat of a better look of what
you need to do while playing the solo. Look at the tab and match what I'm 
doing on the video.

http://www.youtube.com/watch?v=m-82Xqvla4I&feature=channel_page

TAB LEGEND:

h - hammer-on
p - pull-off
b - bend
(#) - note matched from bending another note
r - release bend
== - sustain note
/ - slide
v - vibrato(NOT WHAMMY BAR)


|------15-17b(19)-17b(20)-17b(19)r17p15----15h17-17b(19)-17b(19)-17-15-17b(19)-15----|
|15h17----------------------------------17-------------------------------------------|
|------------------------------------------------------------------------------------|
|------------------------------------------------------------------------------------|
|------------------------------------------------------------------------------------|
|------------------------------------------------------------------------------------|


|----------------------------15==------15=-------------------------------------------|
|------15-17-15b(17)-15b(17)---15b(17)---15b(17)-15b(17)-15-13-15b(17)-13------------|
|14-16-------------------------------------------------------------------------------|
|------------------------------------------------------------------------------------|
|------------------------------------------------------------------------------------|
|------------------------------------------------------------------------------------|


|-------------------------------|--------------------------------------------------15|
|15b(17)-15-13/12---------------|----------------------------------------------------|
|-----------------14b(16)r14-12-|-14bvv/-----------------7---7-------12-12-14b(16)===|
|-------------------------------|-------------5---5--7/9---9---12/14-----------------|
|-------------------------------|---------5/7---7------------------------------------|
|-------------------------------|----------------------------------------------------|


|=====----------------------------------|-------------15h17-17b(19)-b(20)-17b(19)r17-15----15-|
|15=15------------------15--------------|-------15h17-----------------------------------17----|
|--r14-12----12h14b(16)----r14-12-14-12-|-14h16-----------------------------------------------|
|---------14----------------------------|-----------------------------------------------------|
|---------------------------------------|-----------------------------------------------------|
|---------------------------------------|-----------------------------------------------------|

Please rate and keep rocking. 
Tap to rate this tab
# A B C D E F G H I J K L M N O P Q R S T U V W X Y Z