Song name
# A B C D E F G H I J K L M N O P Q R S T U V W X Y Z

Tesla - Forever More tab

Ok nobody ever tabs tesla so here is a new song by them called forever more hope you 
it.

TUNED DOWN ONE STEP

INTRO
e|------1-0---------------1-0-----------|
B|---------------1-3---------------3----|
G|----2--------------------------0------|
D|--0----------2--------3---------------|
A|-----------0--------1-----------------|
E|-----------------------------3--------|

After this guitar 2 goes into Drop D tuning one step down

Use these chords on chorus's and as your riff
e|----------------------------|
B|--3-------------------------|
G|--2----2----3---------------|
D|--0----2----3---5--(or-5-)--|
A|-------0----1---5--(or-5-)--|
E|----------------5--(or-3-)--|

Verses do this

e|-------------------------------------------|
B|-------------------------------------------|
G|-------------------------------------------|
D|--0-3---0-0-0-0------0-3---2-2-2-2----2-3--|
A|--0-3---0-0-0-0------0-3---2-2-2-2----2-3--|
E|--0-3---0-0-0-0------0-3---2-2-2-2----2-3--|

The rest of the song goes the same, and the bridge part is sam kindof thing but 
hard to tab it out quite and solo is pretty simple scale watch him play it and listen and you'll 
it. If you need me to tab out the rest of the song just leave a comment and i will post a new one.
Tap to rate this tab
# A B C D E F G H I J K L M N O P Q R S T U V W X Y Z