Song name
# A B C D E F G H I J K L M N O P Q R S T U V W X Y Z

Tesla - Forever More tab

-------------------------------------------------------------------------------
			     Tesla-Forever More Solo
-------------------------------------------------------------------------------
Tabbed By: NShreddKidd1994
Email: a_santoro@verizon.net

Tuning: Drop Db

Start Time-3:36
e|-13br12~~~-10-12-13-12-10-13-12-10-------------------------------------------------|
B|--------------------------------------13----------------------------------14~~~----|
G|----------------------------------------12-14b~~~--------14-12b===--12h14----------|
D|----------------------------------------------------12h15--------------------------|
A|-----------------------------------------------------------------------------------|
E|-----------------------------------------------------------------------------------|

e|-------------13------13-15b~~~-------------------/13~~~-/15~~~------------|
B|-15h17-15-17----15-17--------------/15~~~-/17~~~--------------------------|
G|--------------------------------------------------------------------------|
D|--------------------------------------------------------------------------|
A|--------------------------------------------------------------------------|
E|--------------------------------------------------------------------------|

e|-17p15p13-17p15p13-17p15-20p18p17-20p18p17-20p18-22p20p18-22p20p18-22p20p18|
B|---------------------------------------------------------------------------|
G|---------------------------------------------------------------------------|
D|---------------------------------------------------------------------------|
A|---------------------------------------------------------------------------|
E|---------------------------------------------------------------------------|

e|-22p20p18-22p20p18-22p20p18-22p20p18-22p20p18-22b~~~~~~--------------------|
B|---------------------------------------------------------------------------|
G|---------------------------------------------------------------------------|
D|---------------------------------------------------------------------------|
A|---------------------------------------------------------------------------|
E|---------------------------------------------------------------------------|

| =  hold note
| /  slide up
| \  slide down
| h  hammer-on
| p  pull-off
| ~  vibrato/vibrato and hold note
| +  harmonic
| x  Mute note
===============================================================================
Tap to rate this tab
 
# A B C D E F G H I J K L M N O P Q R S T U V W X Y Z