Song name
# A B C D E F G H I J K L M N O P Q R S T U V W X Y Z

Tesla - Call It What You Want tab

t. See http://www.olga.net/faq/ for more information.                     #
#-----------------------------------------------------------------------------#

Date: Sat, 15 Apr 2000 21:46:07 -0400
From: "Stuart Robertson" 
Subject: t/tesla/call_it_what_you_want.tab

As I have used so much Tab from this site I thought that I had better submit
some!
I just started listening to some of my old (and often cheesy) LP's and, as
it's not already posted here, I thought that I would submit my Tab for the
main Verse riff of Tesla's stormin' tune "Call It What You Want" - Hope you
enjoy it!!!!


"Call It What You Want" - Tesla.
--------------------

Intro:

----------------------------------------------------------------------------
----------------------------------------------------------------------------
-------------------------0-----------0-------------------0----------0-------
-----------------------------2-----------2-----------2-------0----------0---
--------0------------------------3-----------3-----------3-------2----------
2----------2----------------------------------------------------------------
------------------------------------------------




----------------------------------------------------------------------------
----------------------------------------------------------------------------
-------------------------0-----------0-------------------0-----------0------
-----------------------------2-----------2-----------2-------2-----------2--
--------2------------------------0-----------0-----------0-------0----------
0----------0----------------------------------------------------------------




----------------------------------------------------------------------------
----------------------------------------------------------------------------
-------------------------0-----------0-------------------0----------0-------
-----------------------------2-----------2-----------2-------0----------0---
--------0------------------------3-----------3-----------3-------2----------
2----------2----------------------------------------------------------------




----------------------------------------------------------------------------
----------------------------------------------------------------------------
-------------------------0-----------0-------------------0----0-------------
-----------------------------2-----------2-----------2-------0-------0------
---------------------------------0-----------0-----------0-------1----------
2---------------------------------------------------------------------------



Verse:
----------------------------------------------------------------------------
----------------------------------------------------------------------------
-------------------------0-----------0-------------------0----------0-------
-----------------------------2-----------2-----------2-------0----------0---
--------0------------------------3-----------3-----------3-------2----------
2----------2----------------------------------------------------------------





----------------------------------------------------------------------------
----------------------------------------------------------------------------
-------------------------0-----------0-------------------0------------0-----
------------------------------2-----------2-----------2-------0-----------0-
---------0------------------------0-----------0-----------0-------1---------
-2----------2---------------------------------------------------------------


Repeat 'till it gets to the heavy "matters most of all" bit!!!


I'll figure out the rest as and when I have the time but feel free to add to
this transcription or point out any mistakes!!!
Tap to rate this tab
# A B C D E F G H I J K L M N O P Q R S T U V W X Y Z