Song name
# A B C D E F G H I J K L M N O P Q R S T U V W X Y Z

Tesla - The First Time tab

tab by: behnam h.

Artist: tesla
Song: the first time
Album: forever more

Emil: fixxxeroftherock@yahoo.com
----------------------------------------------------
Tune: half step down

intro
 Gtr. 1
|------------------------------------------------------------------|
|-----------------------3-------------------------------3----------|
|-------0-----0-------0-----0---------0-----0---------0-----0------|
|-----4---4---------4---------4-----4-----4---4-----4---------4----|
|---7-------7-----5-------------5-3-----3-------3-2-------------2--|
|-0----------------------------------------------------------------|

 Gtr. 2
|--------------------------------------------------------------|
|-14fbr-------14fbr--12------14fbr-----------------------------|
|--------------------------------------------------------------|
|--------------------------------------------------------------|
|--------------------------------------------------------------|
|--------------------------------------------------------------|


Verse
|------------------------------------------------------------------|
|-----------------------3-------------------------------3----------|
|-------0-----0-------0-----0---------0-----0---------0-----0------|
|-----4---4---------4---------4-----4-----4---4-----4---------4----|
|---7-------7-----5-------------5-3-----3-------3-2-------------2--|
|-0----------------------------------------------------------------|


Pre Chorous
|------------------------------------------------------------------|
|-----0-----0---------0-----0---------0-----0---------0-----0------|
|-----0-----0---------0-----0---------0-----0---------0-----0------|
|---5-----5-----5---7-----7-----7---5-----5-----5---7-----7-----7--|
|-3-----3-----3---5-----5-----5---3-----3-----3---5-----5-----5----|
|------------------------------------------------------------------|


Chorous
|------------------------------------------------------------------|
|------------------------------------------------------------------|
|---------------------------------5-5-5-5-5-5-5-5-5-5-5-5-5-7-7-7--|
|-5-5-5-5-5-5-5-7-7-7-7-7-7-7-7-7-5-5-5-5-5-5-5-5-5-5-5-5-5-7-7-7--|
|-5-5-5-5-5-5-5-5-5-5-5-5-5-5-5-5-3-3-3-3-3-3-3-3-3-3-3-3-3-5-5-5--|
|-3-3-3-3-3-3-3-5-5-5-5-5-5-5-5-5----------------------------------|

|------------------------------------------------------------------|
|------------------------------------------------------------------|
|---------------------------------5-5-5-5-5-5-5-5-5-5-5-5-5-7-7-7--|
|-5-5-5-5-5-5-5-7-7-7-7-7-7-7-7-7-5-5-5-5-5-5-5-5-5-5-5-5-5-7-7-7--|
|-5-5-5-5-5-5-5-5-5-5-5-5-5-5-5-5-3-3-3-3-3-3-3-3-3-3-3-3-3-5-5-5--|
|-3-3-3-3-3-3-3-5-5-5-5-5-5-5-5-5----------------------------------|

|------------------------------------------------------------------|
|------------------------------------------------------------------|
|-------------------------------------------------7-7-7-7-7-7-7-7--|
|-5-5-5-5-5-5-5-7-7-7-7-7-7-7-7-7-2-2-2-2-2-2-2-2-7-7-7-7-7-7-7-7--|
|-5-5-5-5-5-5-5-7-7-7-7-7-7-7-7-7-2-2-2-2-2-2-2-2-5-5-5-5-5-5-5-5--|
|-3-3-3-3-3-3-3-5-5-5-5-5-5-5-5-5-0-0-0-0-0-0-0-0------------------|

|------------------------------------------------------------------|
|------------------------------------------------------------------|
|-5-5-5-5-5-5-5-5-5-5-5-5-5-5-5-5-7-7-7-7-7-7-7-7-7----------------|
|-5-5-5-5-5-5-5-5-5-5-5-5-5-5-5-5-7-7-7-7-7-7-7-7-7----------------|
|-3-3-3-3-3-3-3-3-3-3-3-3-3-3-3-3-5-5-5-5-5-5-5-5-5----------------|
|------------------------------------------------------------------|


Before Verse 2
 Gtr. 2
|--------------------------------------------------------------|
|-15fbr--------------------------------------------------------|
|--------------16hb--------16----14----16hbr-------------------|
|--------------------------------------------------------------|
|--------------------------------------------------------------|
|--------------------------------------------------------------|

Solo
 Gtr. 1
|------------------------------------------------------------------|
|------------------------------------------------------------------|
|---------------------------------7-7-7-7-7-7-7-7-7-7-7-7-7-7-7-7--|
|-7-7-7-7-7-7-7-7-7-7-7-7-7-7-7-7-7-7-7-7-7-7-7-7-7-7-7-7-7-7-7-7--|
|-7-7-7-7-7-7-7-7-7-7-7-7-7-7-7-7-5-5-5-5-5-5-5-5-5-5-5-5-5-5-5-5--|
|-5-5-5-5-5-5-5-5-5-5-5-5-5-5-5-5----------------------------------|

|------------------------------------------------------------------|
|------------------------------------------------------------------|
|---------------------------------5-5-5-5-5-5-5-5-7-7-7-7-7-7-7-7--|
|-7-7-7-7-7-7-7-7-7-7-7-7-7-7-7-7-5-5-5-5-5-5-5-5-7-7-7-7-7-7-7-7--|
|-7-7-7-7-7-7-7-7-7-7-7-7-7-7-7-7-3-3-3-3-3-3-3-3-5-5-5-5-5-5-5-5--|
|-5-5-5-5-5-5-5-5-5-5-5-5-5-5-5-5----------------------------------|

 Gtr. 2
|----------------------------------------------|
|------------------------------------8--\7-----|
|-7--\5------4--\2-------5---/7----------------|
|----------------------------------------------|
|----------------------------------------------|
|----------------------------------------------|

|--------------------------------------------------------------|
|--------------------------------------------------------------|
|-7--\5------4--\2------------9------5--/11-------/16----------|
|------------------------2-------------------------------------|
|--------------------------------------------------------------|
|--------------------------------------------------------------|


Outro solo (play with chorous)
|-----------------------------------------------------------------|
|-8-------------10----------------8-------------------------------|
|-----------------------------------------------------7---7-5-----|
|-----------------------------------------------------------------|
|-----------------------------------------------------------------|
|-----------------------------------------------------------------|

|-----------------------------------------------------------------|
|-8-------------10------10--12----8-------------------------------|
|-----------------------------------------------------7---7-5-----|
|-----------------------------------------------------------------|
|-----------------------------------------------------------------|
|-----------------------------------------------------------------|

|-----------------------------------------------------------------|
|-8-------------10----------------8---------------5---------------|
|-----------------------------------------------------------------|
|-----------------------------------------------------------------|
|-----------------------------------------------------------------|
|-----------------------------------------------------------------|

|-----------------------------------------------------------------|
|-----------------------------------------------8---7---7---7-----|
|-5-------------------------------7-------5/7---------------------|
|-----------------------------------------------------------------|
|-----------------------------------------------------------------|
|-----------------------------------------------------------------|
Tap to rate this tab
 
# A B C D E F G H I J K L M N O P Q R S T U V W X Y Z