Tesla - One Day At A Time tab

tab by: behnam h.

Artist: tesla
Song: one day at a time
Album: forever more

Emil: fixxxeroftherock@yahoo.com
----------------------------------------------------
Tune: half step down

 intro
|----------------------------------------------|
|----------------------------------------------|
|----------------------------------------------|
|------------7-7-9-9-7-7-9-9-7-7----(paly x4)--|
|-7-----9--------------------------------------|
|-5---5-7--------------------------------------|

 Verse
|--------------------------------------------------------------|
|--------------------------------------------------------------|
|--------------------------------------------------------------|
|--------------------------------------------------------------|
|-7-----9-------7-----9-------7-----9-------7-----9------------|
|-5---5-7-------5---5-7-------5---5-7-------5---5-7------------|

|--------------------------------------------------------------|
|--------------------------------------------------------------|
|--------------------------------------------------------------|
|--------------------------------------------------------------|
|-7-----5-------7-----5-------7-----9-------7-----9------------|
|-5---5-3-------5---5-3-------5---5-7-------5---5-7------------|


 Pre chorous
|----------------------------------------------------------------|
|----------------------------------------------------------------|
|----------------------------------------------------------------|
|----------------------------------------------------------------|
|----------------------------------------------------------------|
|-5---5---5---5-5-4---4---4---4-4-3---3---3---3-3-3---3---3--3-3-|

|-----------------------------------------------------------------|
|-----------------------------------------------------------------|
|-----------------------------------------------------------------|
|-------------------------------------------------2-0-----------2-|
|---------7---------------7---------------------------2-1-0-----2-|
|-5---5-------5-5-4---4-------4-4-3---3---3---3-3-----------3-2-0-|


chorous
 Gtr. 1
|--------------------------------------------------------------|
|-----------------3--------------------------------------------|
|-----------------2---------------2---------------5------------|
|-2---------------0---------------2---------------5------------|
|-2-------------------------------0---------------3------------|
|-0------------------------------------------------------------|
|Gtr.2
|-------0---------------0---------------5---------------3------|
|-------0---------------3---------------5---------------5------|
|--------------------2------------2------------------5---------|
|-2---------------0---------------2---------------5------------|
|-2-------------------------------0---------------3------------|
|-0------------------------------------------------------------|

 Gtr. 1
|--------------------------------------------------------------|
|-----------------3--------------------------------------------|
|-----------------2---------------5---------------2------------|
|--2--------------0---------------5---------------2------------|
|--2------------------------------3---------------0------------|
|--0-----------------------------------------------------------|
|Gtr.2
|-------0-------------------------------3---------------5------|
|-------0--------------<7>--------------5---------------5------|
|-------------------<7>--------------5------------2------------|
|-2--------------<7>--------------5---------------2------------|
|-2-------------(natural harmony)-3---------------0------------|
|-0------------------------------------------------------------|


Solo
 Gtr. 1
|----------------------------------------------------------|
|----------------------------------------------------------|
|----------------------------------------------------------|
|----------------------------------------------------------|
|-7-----9-------7-----9-------2-----4-------2-----4--------|
|-5---5-7-------5---5-7-------0---0-2-------0---0-2--------|

|----------------------------------------------------------|
|----------------------------------------------------------|
|----------------------------------------------------------|
|----------------------------------------------------------|
|-2-----4-------2-----4-------7-----9-------7-----9--------|
|-0---0-2-------0---0-2-------5---5-7-------5---5-7--------|


 Gtr. 2
| -------------------------------------------------------------|
| -12p7p10-12p7p10-12p7p10-12p7p10-11p6p9-11p6p9-11p6p9-11p6p9-|
|.-T-------T-------T-------T-------T------T------T------T------|
|.-------------------------------------------------------------|
| -------------------------------------------------------------|
| -------------------------------------------------------------|

----------------------------------------------------- |
-10p5p8-10p5p8-10p5p8-10p5p8-9p4p7-9p4p7-9p4p7-9p4p7- |
-T------T------T------T------T-----T-----T-----T-----.|
-----------------------------------------------------.|
----------------------------------------------------- |
----------------------------------------------------- |

|----------------------------------------------|
|----------------------------------------------|
|-4fb--------4fb-4fb-4fb-4fb-4fb---p2-4~~~-----|
|----------------------------------------------|
|----------------------------------------------|
|----------------------------------------------|

|--------------------------------------------------------------------|
|-2h5p2-----2--------------------------------------------------------|
|-------4fb---4-2---2-4p2---2-4p2-4fbr---2---------------------------|
|-----------------4-------4-----------------4p2---2------------------|
|-----------------------------------------------4---4-2p0-2fbr-0-----|
|----------------------------------------------------------------2---|

|----------------------------------------------------------|
|-------------------------7-7-7---7-7-----7-7---7----------|
|-------------------------7-7-7---7-7-----7-7---7-9fb------|
|-------------5---7h9-----------9-------9------------------|
|-----5---5h7---7------------------------------------------|
|-5h7---7--------------------------------------------------|

|-( play x3 )------------------------9h12p9-12fb-12fb------|
|-7h10p7--------7h10p7-10fb----12fb------------------------|
|--------9fb-----------------------------------------------|
|----------------------------------------------------------|
|----------------------------------------------------------|
|----------------------------------------------------------|


Outro (play with chorous first part)
|----------------------------------------------|
|----------------------------------------------|
|-7-9-9-9-9-9-9-9-9-9-9-9-9-9-9-9------(x2)----|
|----------------------------------------------|
|----------------------------------------------|
|----------------------------------------------|

----------------------------------------------------------------------|
----------------------------------------------------------------------|
-7-9-9-9-9-9-9-9-12-9-9-9-9-9-9-9-12-9-9-9-12-9-9-9-12-9-9-9-12-9-9-9-|
----------------------------------------------------------------------|
----------------------------------------------------------------------|
----------------------------------------------------------------------|

------------------------------------------------------------------|
------------------------------------------------------------------|
-7-9-9-9-9-9-9-9-9-9-9-9-9-9-9-9-7-9-9-9-9-9-9-9-12-9-9-9-9-9-9-9-|
------------------------------------------------------------------|
------------------------------------------------------------------|
------------------------------------------------------------------|

------------------------------------------------------------------------|
------------------------------------------------------------------------|
-7-9-9-9-9-9-9-9-12-9-9-9-12-9-9-9-12-9-9-9-12-9-9-9-12-9-9-9-12fb-14fb-|
------------------------------------------------------------------------|
------------------------------------------------------------------------|
------------------------------------------------------------------------|
Tap to rate this tab
 
# A B C D E F G H I J K L M N O P Q R S T U V W X Y Z