Song name
# A B C D E F G H I J K L M N O P Q R S T U V W X Y Z

Tesla - I Wanna Live tab

tab by: behnam h.

Artist: tesla
Song: I wanna live
Album: forever more

Emil: fixxxeroftherock@yahoo.com
----------------------------------------------------
Tune: standard

 Intro
|------------------------------------------|
|------------------------------------------|
|-6-6-6-6-6-6-6-6-6-6-6-6-6-6-6-6----------|
|-6-6-6-6-6-6-6-6-6-6-6-6-6-6-6-6----------|
|------------------------------------------|
|------------------------------------------|

 Gtr. 1 & 2
|------------------------------------------------------------|
|------------------------------------------------------------|
|-6-6-6-(6-6-6)--9-9-9-(6-6-6)--------(6-6-6)--6-6-6---4-6---|
|-6-6-6-(6-6-6)--9-9-9-(6-6-6)--9-9-9-(6-6-6)--6-6-6---4-6---|
|-4-4-4----------7-7-7----------9-9-9----------4-4-4---------|
|-------------------------------7-7-7------------------------|

 Gtr. 1
|------------------------------------------------------------|
|------------------------------------------------------------|
|-6-6-6-(6-6-6)--9-9-9-(6-6-6)--------(6-6-6)--6-6-6---4-6---|
|-6-6-6-(6-6-6)--9-9-9-(6-6-6)--9-9-9-(6-6-6)--6-6-6---4-6---|
|-4-4-4----------7-7-7----------9-9-9----------4-4-4---------|
|-------------------------------7-7-7------------------------|
|Gtr. 2
|------------------------------------------------------------|
|------------------------------------------------------------|
|-6-6-6-(6-6-6)--9-9-9-(6-6-6)--------(6-6-6)--6-6-6---6-9---|
|-6-6-6-(6-6-6)--9-9-9-(6-6-6)--9-9-9-(6-6-6)--6-6-6---6-9---|
|-4-4-4----------7-7-7----------9-9-9----------4-4-4---------|
|-------------------------------7-7-7------------------------|


Verse
|--------------------------------------------------------------|
|---------------------------------------------(only Gtr. 2)----|
|-6-6-6-------9-9-9-------------------6-6-6---4-6--------------|
|-6-6-6-------9-9-9-------9-9-9-------6-6-6---4-6--------------|
|-4-4-4-------7-7-7-------9-9-9-------4-4-4--------------------|
|-------------------------7-7-7--------------------------------|

|--------------------------------------------------------------|
|---------------------------------------------(only Gtr. 2)----|
|-6-6-6-------9-9-9-------------------6-6-6---9-6--------------|
|-6-6-6-------9-9-9-------9-9-9-------6-6-6---9-6--------------|
|-4-4-4-------7-7-7-------9-9-9-------4-4-4--------------------|
|-------------------------7-7-7--------------------------------|

|------------------------------------------------------------|
|------------------------------------------------------------|
|-6-6-6-(6-6-6)--9-9-9-(6-6-6)--------(6-6-6)--6-6-6---------|
|-6-6-6-(6-6-6)--9-9-9-(6-6-6)--9-9-9-(6-6-6)--6-6-6---------|
|-4-4-4----------7-7-7----------9-9-9----------4-4-4---------|
|-------------------------------7-7-7------------------------|

|------------------------------------------------------------------|
|------------------------------------------------------------------|(only Gtr. 2)
|-6-6-6-(6-6-6)--9-9-9-(6-6-6)--------(6-6-6)--6-6-6---9-6---------|
|-6-6-6-(6-6-6)--9-9-9-(6-6-6)--9-9-9-(6-6-6)--6-6-6---9-6---------|
|-4-4-4----------7-7-7----------9-9-9----------4-4-4---------------|
|-------------------------------7-7-7------------------------------|

 Pre Chorous
|--------------------|
|--------------------|
|--------------------|
|--------------------|
|-2-2-2-2-2-2-2-2----|
|--------------------|

 Chorous
|------------------(2nd & 3rd time play x3)-----------------------|
|-----------------------------------------------------------------|
|---------------6-6-6-6-6-6-6-6-6-9-9-9-9-9-9-9-8-8-8-8-8-8-8-8-8-|
|-7-7-7-7-7-7-7-6-6-6-6-6-6-6-6-6-9-9-9-9-9-9-9-8-8-8-8-8-8-8-8-8-|
|-7-7-7-7-7-7-7-4-4-4-4-4-4-4-4-4-7-7-7-7-7-7-7-6-6-6-6-6-6-6-6-6-|
|-5-5-5-5-5-5-5---------------------------------------------------|

|--------------------------------------------------------------|
|--------------------------------------------------------------|
|---------------6-6-6-6-6-6-6-6-6-9-----8----------------------|
|-7-7-7-7-7-7-7-6-6-6-6-6-6-6-6-6-9-----8-----11---------------|
|-7-7-7-7-7-7-7-4-4-4-4-4-4-4-4-4-7-----6-----9----------------|
|-5-5-5-5-5-5-5-------------------------------9----------------|


Bridge
 Gtr. 1
|-----------4---0------------4------------------------------------|
|--------------------0--------------------------------------------|
|-------------------------------------------11--------------------|
|-2-----------------------------x-11------------------------6---7-|
|-2-----------------------------x-11------------------------6---7-|
|-0-----------------------------x-9-------------------------4---5-|
|Gtr. 2
|-----------------------------------------------------------------|
|-----------------------------------------------------------------|
|-----------------------------------------------------------------|
|-2-2-2-2-2-2-2-2-2-2-2-2-2-2-2-x-11------------------------6---7-|
|-2-2-2-2-2-2-2-2-2-2-2-2-2-2-2-x-11------------------------6---7-|
|-0-0-0-0-0-0-0-0-0-0-0-0-0-0-0-x-9-------------------------4---5-|

 Gtr. 1 & 2
|-----------------------------------|
|-----------------------------------|
|-----------------x-4-4-4-4-4-4-4---|
|-(7)---------7-7-x-4-4-4-4-4-4-4---|
|-(7)---------7-7-x-2-2-2-2-2-2-2---|
|-(5)---------5-5-------------------|


Solo
|--------------------------------------------------------------|
|-14------14----14------11-11-11-11-11-11-11-11-11-11-11-11-11-|
|-13fb----13fb—13fb-----11-11-9--9--11-11-9--11-11-9--11-11fb--|
|--------------------------------------------------------------|
|--------------------------------------------------------------|
|--------------------------------------------------------------|

|--------------------------------------------------------------|
|-11-11------11-11----------------11---------------------------|
|-9--11fb----11-9---11-12-11-11-9-11---------------------------|
|--------------------------------------------9-9---------------|
|----------------------------------------7-9-------7-9-9-------|
|--------------------------------------------------------------|

|-----------------------------( play x7 )----------------------|
|-----------------------------9-12p9---------------12fb--------|
|---------------------x-11fb---------11fb----------------------|
|---------------------x----------------------------------------|
|-7---9-7------------------------------------------------------|
|---------9---9------------------------------------------------|
Tap to rate this tab
 
# A B C D E F G H I J K L M N O P Q R S T U V W X Y Z