Tesla - Love Song tab

-----------------------------------------------------------------------------
			     Love Song - Tesla
-----------------------------------------------------------------------------
Tabbed by:Hat-Rack
YouTube: http://www.youtube.com/user/HatRAckk

Tuning:Standard

e|---3--3p2p0---------------------14-14-14p12p10--------2-3-2h3p2p0---------|
B|-------------------7\3-3-3------------------------------------------------|
G|--------------------------------------------------------------------------|
D|---0---------------0----------------------------------0-------------------|
A|--------------------------------------------------------------------------|
E|--------------------------------------------------------------------------|

e|--------------------------------------2-3-2h3p2p0-------------------------|
B|--2-3-5-----3--------3------0-2-3-----------------------------------------|
G|------------------4----4--------------------------------------------------|
D|---------------4----------------------------------------------------------|
A|--0---------2-------------------------0-----------------------------------|
E|----------------------------3---------------------------------------------|

e|--------------------------------------2-3-2h3p2p0-------------------------|
B|--2-3-5-----3--------3------0-2-3-----------------------------------------|
G|------------------4----4--------------------------------------------------|
D|---------------4----------------------------------------------------------|
A|--0---------2-------------------------0-----------------------------------|
E|----------------------------3---------------------------------------------|

e|--------------------------------------2-3-2h3p2p0-------------------------|
B|--2-3-5-----3--------3------0-2-3----------------------2-3-5--------------|
G|------------------4----4--------------------------------------------------|
D|---------------4----------------------------------------------------------|
A|--0---------2-------------------------0----------------0------------------|
E|----------------------------3---------------------------------------------|

e|---14-12-10------------------------------------------7-9-10---9-10---9-10-|
B|--------------14-12-10--------------3--5--7-----------------10------8-----|
G|------------------------12-11-9-----4--6--7--2h4p2-2----------------------|
D|--------------------------------------------------------------------------|
A|--------------------------------------------------------------------------|
E|--------------------------------------------------------------------------|

e|---12--10--9----7-9-10---9-10---9-10----12--------------------------------|
B|---14--12--10----------10-----8---------10--------------------------------|
G|---------------------------------------------4p2p0-4p2p0-4p2p0------------|
D|---------------------------------------------------------------4p2p0------|
A|---------------------------------------------------------------------4p2p0|
E|--------------------------------------------------------------------------|

e|----------------------2-3-2h3p2p0-----------------------------------------|
B|--------------------------------------------------------------------------|
G|--4p2p0-------------------------------------------------------------------|
D|--------4p2p0---------0---------------------------------------------------|
A|--------------4p2p0-------------------------------------------------------|
E|--------------------------------------------------------------------------|

e|--------------------------------------2-3-2h3p2p0-------------------------|
B|--2-3-5-----3--------3------0-2-3-----------------------------------------|
G|------------------4----4--------------------------------------------------|
D|---------------4----------------------------------------------------------|
A|--0---------2-------------------------0-----------------------------------|
E|----------------------------3---------------------------------------------|

e|--------------------------------------2-3-2h3p2p0-------------------------|
B|--2-3-5-----3--------3------0-2-3-----------------------------------------|
G|------------------4----4--------------------------------------------------|
D|---------------4----------------------------------------------------------|
A|--0---------2-------------------------0-----------------------------------|
E|----------------------------3---------------------------------------------|

e|--------------------------------------2-3-2h3p2p0-------------------------|
B|--2-3-5-----3--------3------0-2-3-------------------2-3-5-----------------|
G|------------------4----4--------------------------------------------------|
D|---------------4----------------------------------------------------------|
A|--0---------2-------------------------0-------------0---------------------|
E|----------------------------3---------------------------------------------|

e|---14-12-10-------------------------------2--3--5-----||
B|--------------14-12-10--------------3--5--3--5--7-----||
G|------------------------12-11-9-----4--6--2-----7----.||
D|-----------------------------------------------------.||
A|------------------------------------------------------||
E|------------------------------------------------------||


************************************

| /   slide up
| \   slide down
| h   hammer-on
| p   pull-off
| ~   vibrato
| +   harmonic
| x   Mute note
| b   Bend
| pb  Pre-bend
| br  Bend release
| pbr Pre-bend release
| brb Bend release bend

************************************
Tap to rate this tab
 
# A B C D E F G H I J K L M N O P Q R S T U V W X Y Z