Song name
# A B C D E F G H I J K L M N O P Q R S T U V W X Y Z

Tesla - Caught In A Dream tab

Auther/Artist:Tesla 
Title:Caught In A Dream
Transcribed by:Justin Harmon
Email:womenarenice@hotmail.com




Intro Lead Fill:
E------------------------------------------
B------------------------------------------
G--12h14~--12~-----------------------------
D----------------10h12p10h12p10~---10s5~---
A------------------------------------------
E------------------------------------------


Lead Fill After 1st Chorus
E-------------------------------
B-------------------------------
G-------------------------------
D--12b---10h12p10~--------10~---
A-------------------------------
E--------------------12---------


Solo(Play Twice)
E---------------------------------------------
B---------------------------------------------
G--12h14--14p12---------12~--12h14--14b-12~---
D----------------12h14------------------------
A---------------------------------------------
E---------------------------------------------
Tap to rate this tab
# A B C D E F G H I J K L M N O P Q R S T U V W X Y Z