Song name
# A B C D E F G H I J K L M N O P Q R S T U V W X Y Z

Tesla - Rock Me To The Top tab

this is the intro tab for "rock me to the top" by tesla. it sounds all right to me but i 
include the 2nd guitar.

repeat 2 times
----------------------|------------|
----------------------|------------|
----------------------|------------|
----------------------|-3-2-0------|
---2-3--2-0----0------|-3-2-0-3-0--|
0------------3--------|-------3-0--|

repeat 2 times
------------------------------------------------|------------|
------------------------------------------------|------------|
------------------------------------------------|------------|
-----------2-3-3-3-3-3-2-0-0-0-0-0---0----------|-3-2-0------|
0--0-0-0-0-2-3-3-3-3-3-2-0-0-0-0-0-3-0----------|-3-2-0-3-0--|
0--0-0-0-0-------------------------3------------|-------3-0--|
Tap to rate this tab
 
# A B C D E F G H I J K L M N O P Q R S T U V W X Y Z