Song name
# A B C D E F G H I J K L M N O P Q R S T U V W X Y Z

Tesla - Dont De-rock Me tab

Don't De-Rock Me Tab by Tesla, www.Ultimate-Guitar.Com

Tuning: E,A,D,G,B,e

-------------------------|
--3----------------------|
--2---5---2/-------------|
--0---5---2/-------------|
------3---0x-------------|
-------------------------|

-----------------------------------|repeat 4x
-----------------------------------|
--0--2--5--2--0--5--0--2----------.|
--0--2--5--2--0--5--0--2----------.|
--x--0--3--0--x--3--x--0-0-0-0-0-0-|
--3-----------3-----3--------------|

---------------------------------------------------------------------|repeat
---------------------------------------------------------------------|through
---------------------------------0--2--------------9-----9-----9----.|1st
--2-------------7--5-------------0--2--------------9-----9-----9----.|riff
--2-------------5--3-------------x--0--------------7-----7-----7-----|
--0-0-0-0-0-0-0------0-0-0-0-0-0-3----0-0-0-0-0-0-----0-----0-----0--|

--------------------------------|
--------------------------------|
--2---------5--5--7------5--0--.|
--2---------5--5--7------5--0--.|
--0-0-0-0-0-3--3--5------3--x---|
----------------------------3---|

---------------------------------------------------------------------|play
---------------------------------------------------------------------|this
---------------------------------0--2--------------9-----9-----9----.|again
--2-------------7--5-------------0--2--------------9-----9-----9----.|
--2-------------5--3-------------x--0--------------7-----7-----7-----|
--0-0-0-0-0-0-0------0-0-0-0-0-0-3----0-0-0-0-0-0-----0-----0-----0--|

-----------------------------------|repeat 4x
-----------------------------------|then the lyrics "Don't De-Rock Me,
--0--2--5--2--0--5--0--2----------.|Don't De-Rock Me" come in
--0--2--5--2--0--5--0--2----------.|
--x--0--3--0--x--3--x--0-0-0-0-0-0-|
--3-----------3-----3--------------|
Tap to rate this tab
# A B C D E F G H I J K L M N O P Q R S T U V W X Y Z