Song name
# A B C D E F G H I J K L M N O P Q R S T U V W X Y Z

Tesla - Mighty Mouse tab

------------------------------------------------------------------------------
			     MIGHTY MOUSE - Tesla
------------------------------------------------------------------------------
Tabbed by: underrated
Email: mattconnellan@yahoo.com

Tuning: Down  step

This tab was written upon request. If anybody else has any tab requests, don't hesitate
to email them to me. Just don't expect me to be able to figure out Dave Matthews or Cake.
They flabbergast me.

Intro/Verse
e|-----0-------------------------|
B|---------3------3--------2h3---|
G|-------4---------------2-----2-|
D|------------------5------------|
A|---2----------5------0---------|
E|-0----------3------------------|

Prechorus
e|---------0---------------0-|
B|-------0---0-----------0---|
G|-----5-------5-------7-----|
D|---5-----------5---7-------|
A|-3---------------5---------|
E|---------------------------|

Chorus
e|----------------------------------|
B|----------------------------------|
G|----------------------------------|
D|----------------------------------|
A|-------5/7-5--------------5/7-5---|
E|-0--3--------5-0-3--0--3--------5-|

Bridge
e|---------0---------------0---------------0---------------0-------|
B|-------0---0-----------0---0-----------0---0-----------0---0-----|
G|-----5-------5-------7-------7-------9-------9-------7-------7---|
D|---5-----------5---7-----------7---9-----------9---7-----------7-|
A|-3---------------5---------------7---------------5---------------|
E|-----------------------------------------------------------------|

Breakdown pt. 1
e|-------------------------------------------------------------------------|
B|-------------------------------------------------------------------------|
G|-------------------------------------------------------------------------|
D|-------------------------------------------------------------------------|
A|-------------------------------------------------------------------------|
E|-000-2-000-3-00-4-000-5-000-6-00-7-000-8-000-9-00-10-000-11-000-12-00-12-|

Breakdown pt. 2
e|-------------------------------------------------------------------------->
B|--------------------------------6h8-6h8p6-4h6p4--------------------------->
G|-8-6-8-8/9-8-6-6-7--8-6-8-9-8-6-----------------8-6-8-9-8-6-6-7~6~4-2h4p2->
D|-------------------------------------------------------------------------->
A|-------------------------------------------------------------------------->
E|-------------------------------------------------------------------------->

Breakdown pt. 2 (cont'd)
e|---------------------|
B|---------------------|
G|-8-6-8-9-8-4-4h5~~~~-|
D|---------------------|
A|---------------------|
E|---------------------|

Final Chorus
e|-----------------------|
B|-----------------------|
G|-----------------------|
D|-----------------------|
A|-------5-------7-----8-|
E|-0-0-0-3-0-0-0-5-0-0-6-|
   . . .   . . .   . .
Tap to rate this tab
# A B C D E F G H I J K L M N O P Q R S T U V W X Y Z