Song name
# A B C D E F G H I J K L M N O P Q R S T U V W X Y Z

Tesla - Rubberband tab

-------------------------------------------------------------------------------
			     Rubberband - Tesla
-------------------------------------------------------------------------------
Tabbed by:Cheze
Tuning:Normal

This is just the chorus the rest is a lot of the same picking



...cause theres hell to pay.. 
e|-----------------------------------------------------------------------|
B|-----------------------------------------------------------------------|
G|-----------------------------------------------------------------------|
D|--------------------------7-7-7----7-7-7-----3-3-----5-----------------|
A|--------------------------7-7-7----7-7-7-----3-3-----5-----------------|
E|--------------------------5-5-5----5-5-5-----1-1-----3-----------------|

    X2


Then the third time

e|-------------------------------------------------------------------------|
B|-------------------------------------------------------------------------|
G|-------------------------------------------------------------------------|
D|--------------7-7-7----7-7-7-----3-3-----5--5-----3---3---------2--------|
A|--------------7-7-7----7-7-7-----3-3-----5--5-----3---3---------2--------|
E|--------------5-5-5----5-5-5-----1-1-----3--3-----1---1---------2--------|

[Chorus]
All the lightning and thunder - out of hand
Ready or not, now tell me what's your plan
It gets to be all you can stand 
You got to bounce back like a rubberband
Tap to rate this tab
# A B C D E F G H I J K L M N O P Q R S T U V W X Y Z