Song name
# A B C D E F G H I J K L M N O P Q R S T U V W X Y Z

Tessa Rose Jackson - Lost And Found tab

LOST AND FOUND BY TESSA ROSE JACKSON
Tabbed by: Katherine B.
Email: cellogirl3.kb@gmail.com
Tessa Rose Jackson: http://tessarosejackson.com/

This song is quite simple, but goes pretty quickly. Iím fairly certain that it is 
accurate, as I based it on this video that she posted as a piano tutorial: 
http://www.youtube.com/watch?v=QYeM0MvlU7w
If you see any mistakes, please email me or leave a comment, as this is my first tab. I 
hope you have as much fun playing this as I do!

Standard EADGBe Tuning
The Intro and Verse are the same. The Pre-Chorus is played after the Chorus as well as 
before. The G, B, and high e strings are not used.

Intro/Verse:
e|--------------------------------|
B|--------------------------------|
G|--------------------------------|
D|---2-2-2-2-1-1-1-1--------------|
A|--4-4-4-4-2-2-2-2--2-2-4-4-4-4--|
E|------------------4-4-5-5-5-5---|

Pre-Chorus:
e|-------------------------------------------------------------------|
B|-------------------------------------------------------------------|
G|-------------------------------------------------------------------|
D|---2-2-1-1-----------2-2-1-1-----------2-2-1-1---------------------|
A|--4-4-2-2--2-2-2-2--4-4-2-2--4-4-4-4--4-4-2-2--2-2-4-4-4-4-4-4-4-4-|
E|----------4-4-4-4-----------5-5-5-5-----------4-4-5-5-5-5-5-5-5-5--|

Chorus:
e|------------------------------------|
B|------------------------------------|
G|------------------------------------|
D|---2-2-2-2-1-1-1-1------------------|
A|--4-4-4-4-2-2-2-2--2-2-2-2-4-4-4-4--|
E|------------------4-4-4-4-5-5-5-5---|


The order of the song goes like this:
Intro x2
Verse x2
Pre-Chorus
Verse x2
Pre-Chorus
Chorus: x3
Pre-Chorus
Verse x2
VOCALS ONLY
Pre-Chorus
Chorus x3
Pre-Chorus
Verse REPEAT UNTIL END

Thanks! Enjoy!xx
Tap to rate this tab
# A B C D E F G H I J K L M N O P Q R S T U V W X Y Z