Song name
# A B C D E F G H I J K L M N O P Q R S T U V W X Y Z

Tesseract - Lament tab

----------------------------------------------------------------- 
LAMENT - TESSERACT - ONE EP
----------------------------------------------------------------- 

Tuning: Ab F Bb Eb F Bb Eb.


Intro / Main Riff
Eb|------------------------------------------------|
Bb|------------------------------------------------|
F |------------------------------------------------|
Eb|--------12-----------------------12-------------|
Bb|-----------------10----------------------10-----|
F |3^----------11---------------8/10---11----------|
Ab|---0---0---0--0-0--12\---0---------0--0-0--12/--|
pm        x   x    x                  x    x

Eb|------------------------------------------------------------|
Bb|------------------------------------------------------------|
F |------------------------------------------------------------|
Eb|-----12--------------12----------------------12-------------|
Bb|-------------10--------------10----------------------10-----|
F |-8/10---11---------11---11---------------8/10---11----------|
Ab|0------0--0-0--12-0----0--0-0--12/---0---------0--0-0--12/--|
pm        x    x     x x  x    x                  x    x

Eb|------------------------------------------------------------|
Bb|------------------------------------------------------------|
F |------------------------------------------------------------|
Eb|-----12--------------12----------------------12-------------|
Bb|-------------10--------------10----------------------10-----|
F |-8/10---11---------11---11---------------8/10---11----------|
Ab|0------0--0-0--12-0----0--0-0--12/---0---------0--0-0--12/--|
pm        x    x     x x  x    x                  x    x

Eb|---------------------|
Bb|---------------------|
F |---------------------|
Eb|-----12--------------|
Bb|-------------10------|
F |-8/10---11-----------|
Ab|0------0--0-0--12-0--|
pm        x    x


Solo
Eb|-----------------------------------------------|
Bb|10h12-----12^-(12)--\5-----/8-7--\3-3----------|
F |-------------------------------------------5^--|
Eb|-----------------------------------------------|
Bb|-----------------------------------------------|
F |-----------------------------------------------|
Ab|-----------------------------------------------|


Chorus (Repeat x 2)
Eb|---------------------------------------|
Bb|---------------------------------------|
F |---------------------------------------|
Eb|---------------------------------------|
Bb|---------------------------------------|
F |---5-5---5-5---5--------5-5----5----5--|
Ab|0-0---0-0----0--0-0--0h3----0h3--0h3---|
pm x x   x x    x  x x  x      x    x 

Eb|---------------------------------------|
Bb|---------------------------------------|
F |---------------------------------------|
Eb|---------------------------------------|
Bb|---------------------------------------|
F |---5-5---5-5---5-------5-5---5----3----|
Ab|3-3---3-3----3--3-3--3-----3---3h5-----|
pm x x   x x    x  x x  x     x   x

Eb|---------------------------------------|
Bb|---------------------------------------|
F |---------------------------------------|
Eb|---------------------------------------|
Bb|---------------------------------------|
F |---3-3---3-3---3-------3-3---3---5-----|
Ab|5-5---5-5----5--5-5--5-----5---5^------|
pm x x   x x    x  x x  x     x   

Variation For Chorus End
Eb|------------------------------------------|
Bb|------------------------------------------|
F |------------------------------------------|
Eb|------------------------------------------|
Bb|------------------------------------------|
F |---3-3---3-3---3-------3-3---3---5----5^--|
Ab|5-5---5-5----5--5-5--5-----5---5^--/8-----|
pm x x   x x    x  x x  x     x   


Main Riff
Eb|---------------------|
Bb|---------------------|
F |---------------------|
Eb|-12------------------|
Bb|----------10---------|
F |-----11--------------|
Ab|0---0--0-0--12\---0--|
pm x   x    x                             

Eb|-----------------------------------------|
Bb|-----------------------------------------|
F |-----------------------------------------|
Eb|-12-----------------------12-------------|
Bb|----------10----------------------10-----|
F |-----11---------------8/10---11----------|
Ab|0---0--0-0--12\---0---------0--0-0--12/--|
pm x   x    x                  x    x   

Eb|------------------------------------------------------------|
Bb|------------------------------------------------------------|
F |------------------------------------------------------------|
Eb|-----12--------------12----------------------12-------------|
Bb|-------------10--------------10----------------------10-----|
F |-8/10---11---------11---11---------------8/10---11----------|
Ab|0------0--0-0--12-0----0--0-0--12/---0---------0--0-0--12/--|
pm        x    x     x x  x    x                  x    x

Eb|------------------------------------------------------------|
Bb|------------------------------------------------------------|
F |------------------------------------------------------------|
Eb|-----12--------------12----------------------12-------------|
Bb|-------------10--------------10----------------------10-----|
F |-8/10---11---------11---11---------------8/10---11----------|
Ab|0------0--0-0--12-0----0--0-0--12/---0---------0--0-0--12/--|
pm        x    x     x x  x    x                  x    x

Eb|---------------------|
Bb|---------------------|
F |---------------------|
Eb|-----12--------------|
Bb|-------------10------|
F |-8/10---11-----------|
Ab|0------0--0-0--12-0--|
pm        x    x

Eb|-----------------------------------------|
Bb|-----------------------------------------|
F |-----------------------------------------|
Eb|-12-----------------------12-------------|
Bb|----------10----------------------10-----|
F |-----11---------------8/10---11----------|
Ab|0---0--0-0--12\---0---------0--0-0--12/--|
pm x   x    x                  x    x   

Eb|------------------------------------------------------------|
Bb|------------------------------------------------------------|
F |------------------------------------------------------------|
Eb|-----12--------------12----------------------12-------------|
Bb|-------------10--------------10----------------------10-----|
F |-8/10---11---------11---11---------------8/10---11----------|
Ab|0------0--0-0--12-0----0--0-0--12/---0---------0--0-0--12/--|
pm        x    x     x x  x    x                  x    x

Eb|------------------------------------------------------------|
Bb|------------------------------------------------------------|
F |------------------------------------------------------------|
Eb|-----12--------------12----------------------12-------------|
Bb|-------------10--------------10----------------------10-----|
F |-8/10---11---------11---11---------------8/10---11----------|
Ab|0------0--0-0--12-0----0--0-0--12/---0---------0--0-0--12/--|
pm        x    x     x x  x    x                  x    x

Eb|-------------------------------------|
Bb|-------------------------------------|
F |-------------------------------------|
Eb|-----12------------------------------|
Bb|-------------10----------------------|
F |-8/10---11---------------------------|
Ab|0------0--0-0--12\-----0----00--000--|
pm        x    x               xx  xxx  


Chorus (Repeat x 2)
Eb|---------------------------------------|
Bb|---------------------------------------|
F |---------------------------------------|
Eb|---------------------------------------|
Bb|---------------------------------------|
F |---5-5---5-5---5--------5-5----5----5--|
Ab|0-0---0-0----0--0-0--0h3----0h3--0h3---|
pm x x   x x    x  x x  x      x    x 

Eb|---------------------------------------|
Bb|---------------------------------------|
F |---------------------------------------|
Eb|---------------------------------------|
Bb|---------------------------------------|
F |---5-5---5-5---5-------5-5---5----3----|
Ab|3-3---3-3----3--3-3--3-----3---3h5-----|
pm x x   x x    x  x x  x     x   x

Eb|---------------------------------------|
Bb|---------------------------------------|
F |---------------------------------------|
Eb|---------------------------------------|
Bb|---------------------------------------|
F |---3-3---3-3---3-------3-3---3---5-----|
Ab|5-5---5-5----5--5-5--5-----5---5^------|
pm x x   x x    x  x x  x     x   

Variation For Chorus End
Eb|----------------------------------|
Bb|----------------------------------|
F |----------------------------------|
Eb|----------------------------------|
Bb|----------------------------------|
F |---3-3---3-3---3-------3-3--------|
Ab|5-5---5-5----5--5-5--5----3---2^--|
pm x x   x x    x  x x  x        


Outro Riff (Repeat x 6)
Eb|---------------------------------------|
Bb|---------------------------------------|
F |---------------------------------------|
Eb|---------------------------------------|
Bb|---------------------------------------|
F |---5-5---5-5----5-------5-5----5----5--|
Ab|0-0---0-0----0h3-0-0--0-----0h3--0h3---|
pm x x   x x    x   x x  x     x    x 

Variation for 6th repetition
Eb|----------------------------------------|
Bb|----------------------------------------|
F |----------------------------------------|
Eb|----------------------------------------|
Bb|----------------------------------------|
F |---5-5---5-5----5-------5-5----5----5---|
Ab|0-0---0-0----0h3-0-0--0-----0h3--0h3-0--|
pm x x   x x    x   x x  x          


| x  palm mute (pm)
| ^  string bend
| /  slide up
| \  slide down
| h  hammer-on
Tap to rate this tab
# A B C D E F G H I J K L M N O P Q R S T U V W X Y Z