Song name
# A B C D E F G H I J K L M N O P Q R S T U V W X Y Z

Test Icicles - Boa V Python tab

e------------------------------------------------------------------|
B------------------------------------------------------------------|
G------------------------------------------------------------------|
D-7-7-7-7-7-7-7-7-3-3-6-6-6-2-2-2-2-7-7----------------------------|
A-7-7-7-7-7-7-7-7-3-3-6-6-6-2-2-2-2-7-7----------------------------|
E-5-5-5-5-5-5-5-5-1-1-4-4-4-0-0-0-0-5-5----------------------------|

e-----------------------------------------------------12----12-----|
B-----------------------------------------10-------13----13--------|
G-------------------------------------------10--10-----------------|
D------------------------------------------------------------------|
A------------------------------------------------------------------|
E------------------------------------------------------------------|

e--------------------------------------------------------------------|
B--------------------------------------------------------------------|
G--------------------------------------------------------------------|
D-7-7-7-7-7-7-7-7-3-3-6-6-6-2-2-2-2--7-7-5-5-3-3-2-2-----------------|
A-7-7-7-7-7-7-7-7-3-3-6-6-6-2-2-2-2--7-7-5-5-3-3-2-2-----------------|
E-5-5-5-5-5-5-5-5-1-1-4-4-4-0-0-0-0--5-5-3-3-1-1-0-0-----------------|

gtr 2 (comes in on third time)

e------------------------------------------------------------------|
B------------------------------------5-5--5-5--5-5--5-5------------|
G------------------------------------------------------------------|
D------------------------------------------------------------------|
A------------------------------------------------------------------|
E------------------------------------------------------------------|

pre chorus

e------------------------------------------------------------------|
B------------------------------------------------------------------|
G-------------5-4---------5-4-0------------------------------------|
D-7-7-7-7-7-7-----5-5-5-5-------4-4-4-4-4-4-4-4-3-3-3-3-5-5-5-5----|
A------------------------------------------------------------------|
E------------------------------------------------------------------|

Gtr 2. (comes in on second time)

e------------------------------------------------------------------|
B------------------------------------------------------------------|
G------------------------------------------------------------------|
D-7-7-7-7-7-7-7-7-7-7-7-7-7-7-7-7-7-7-7-7-7------------------------|
A-7-7-7-7-7-7-7-7-7-7-7-7-7-7-7-7-7-7-7-7-7------------------------|
E-5-5-5-5-5-5-5-5-5-5-5-5-5-5-5-5-5-5-5-5-5------------------------|

chorus


gtr 1
e------------------------------------------------------------------|
B-------------------14-14-14-14-14-14-14-14-14-14-14---------------|
G-------------------x--x--x--x--x--x--x--x--x--x--x----------------|
D-7-7-7--10-10-10---12-12-12-12-12-12-12-12-12-12-12---------------|
A-7-7-7--10-10-10--------------------------------------------------|
E-5-5-5--8--8--8---------------------------------------------------|

gtr 2
e------------------------------------------------------------------|
B------------------------------------------------------------------|
G------------------------------------------------------------------|
D-7-7-7--10-10-10--15-15-15-15-15-15-15-12-12-12-12-12-12-12-------|
A-7-7-7--10-10-10--15-15-15-15-15-15-15-12-12-12-12-12-12-12-------|
E-5-5-5--8--8--8---13-13-13-13-13-13-13-10-10-10-10-10-10-10-------|

e--------------------------------------------------------------------|
B--------------------------------------------------------------------|
G--------------------------------------------------------------------|
D-7-7-7-7-7-7-7-7-3-3-6-6-6-2-2-2-2--7-7-5-5-3-3-2-2-----------------|
A-7-7-7-7-7-7-7-7-3-3-6-6-6-2-2-2-2--7-7-5-5-3-3-2-2-----------------|
E-5-5-5-5-5-5-5-5-1-1-4-4-4-0-0-0-0--5-5-3-3-1-1-0-0-----------------|

verse


e------------------------------------------------------------------|
B------------------------------------------------------------------|
G-14~~~~~~~~-------------------------------------------------------|
D------------------------------------------------------------------|
A------------------------------------------------------------------|
E------------------------------------------------------------------|

e--------------------------------------------------------------------|
B--------------------------------------------------------------------|
G--------------------------------------------------------------------|
D-7-7-7-7-7-7-7-7-3-3-6-6-6-2-2-2-2--7-7-5-5-3-3-2-2-----------------|
A-7-7-7-7-7-7-7-7-3-3-6-6-6-2-2-2-2--7-7-5-5-3-3-2-2-----------------|
E-5-5-5-5-5-5-5-5-1-1-4-4-4-0-0-0-0--5-5-3-3-1-1-0-0-----------------|

chorus


gtr 1
e------------------------------------------------------------------|
B-------------------14-14-14-14-14-14-14-14-14-14-14---------------|
G-------------------x--x--x--x--x--x--x--x--x--x--x----------------|
D-7-7-7--10-10-10---12-12-12-12-12-12-12-12-12-12-12---------------|
A-7-7-7--10-10-10--------------------------------------------------|
E-5-5-5--8--8--8---------------------------------------------------|

gtr 2
e------------------------------------------------------------------|
B------------------------------------------------------------------|
G------------------------------------------------------------------|
D-7-7-7--10-10-10--15-15-15-15-15-15-15-12-12-12-12-12-12-12-------|
A-7-7-7--10-10-10--15-15-15-15-15-15-15-12-12-12-12-12-12-12-------|
E-5-5-5--8--8--8---13-13-13-13-13-13-13-10-10-10-10-10-10-10-------|


gtr 1
e------------------------------------------------------------------|
B-------------------14-14-14-14-14-14-14-14-14-14-14---------------|
G-------------------x--x--x--x--x--x--x--x--x--x--x----------------|
D-7-7-7--10-10-10---12-12-12-12-12-12-12-12-12-12-12---------------|
A-7-7-7--10-10-10--------------------------------------------------|
E-5-5-5--8--8--8---------------------------------------------------|

e------------------------------------------------------------------|
B------------------------11-11-11-11-10-10-10-10-------------------|
G----------8-8-8-8-9-9-9-------------------------------------------|
D-10-10-10---------------------------------------------------------|
A------------------------------------------------------------------|
E------------------------------------------------------------------|


bridge
e------------------------------------------------------------------|
B------------------------------------------------------------------|
G-0--0--0--0--0--0--0--0--0-0-0-0-0-0-0-0-0-0-0-0------------------|
D-10-10-10-10-10-10-10-10-9-9-9-9-9-9-7-7-7-7-7-7------------------|
A-0--0--0--0--0--0--0--0--0-0-0-0-0-0-0-0-0-0-0-0------------------|
E------------------------------------------------------------------|


gtr 1
e------------------------------------------------------------------|
B-------------------14-14-14-14-14-14-14-14-14-14-14---------------|
G-------------------x--x--x--x--x--x--x--x--x--x--x----------------|
D-7-7-7--10-10-10---12-12-12-12-12-12-12-12-12-12-12---------------|
A-7-7-7--10-10-10--------------------------------------------------|
E-5-5-5--8--8--8---------------------------------------------------|

gtr 2

e------------------------------------------------------------------|
B------------------------11-11-11-11-10-10-10-10-------------------|
G----------8-8-8-8-9-9-9-------------------------------------------|
D-10-10-10---------------------------------------------------------|
A------------------------------------------------------------------|
E------------------------------------------------------------------|
Tap to rate this tab
# A B C D E F G H I J K L M N O P Q R S T U V W X Y Z