Guitaretab - guitar tabs
Song name
# A B C D E F G H I J K L M N O P Q R S T U V W X Y Z

Test Icicles - Party On Dudes Get Hype tab

e------------------------------------------------------------------|
B------------------------------------------------------------------|
G-4--2--------5~-2~--2-0---------------------4--2--------5-13-19~--|
D------2~-2--5----------1~-1-5-0-4-0-3-0-2-0------2~-2-5-----------|
A------------------------------------------------------------------|
E------------------------------------------------------------------|

e------------------------------------------------------------------|
B------------------------------------------------------------------|
G---------------------------4-5-2-5-0-4-0-3-0-2-0------------------|
D-5--2-2--5--0-2--2-2-2-4-5----------------------------------------|
A------------------------------------------------------------------|
E------------------------------------------------------------------|

                           [ first time           ]
e------------------------------------------------------------------|
B------------------------------------------------------------------|
G-9-x-x-x-x-9-9-9-x-x-x-x---------2--------------------------------|
D-9-x-x-x-x-9-9-9-x-x-x-x---2-4-5---5-0-4-0-2-0-2/-----------------|
A-7-x-x-x-x-7-7-7-x-x-x-x------------------------------------------|
E------------------------------------------------------------------|
p.m .....................

 [ second     time    ] [ third         time  ] [     fourth          time]
e----------------------------------------------------------------------------|
B----------------5-4-5/------------------------------------------------------|
G--------2---------------------2-----------------------2------5-0-4-0-3-0-2--|
D-2--4-5---5-4-2---------2-4-5---5-0-4-0-2-0-2/--2-4-5---5-2-----------------|
A----------------------------------------------------------------------------|
E----------------------------------------------------------------------------|

chorus

e---------------------------------------------------------------------|
B---------------------------------------------------------------------|
G-9-9-9-9-9-9-9-9-9-9-11-11-11-11-11-11-11-11-12-12-12-12-11-11-11-11-|
D---------------------------------------------------------------------|
A-7-7-7-7-7-7-7-7-7-7-9--9--9--9--9--9--9--9--10-10-10-10-9--9--9--9--|
E---------------------------------------------------------------------|
[ Tab from: http://www.guitaretab.com/t/test-icicles/66070.html ]
e----------------------------------------------------------------------------|
B----------------------------------------------------------------------------|
G-9-9-9-9-9-9-9-9-9-9-11-11-11-11-11-11-11-11-11-12-12-12-11-11-11-16-16-16--|
D----------------------------------------------------------------------------|
A-7-7-7-7-7-7-7-7-7-7-9--9--9--9--9--9--9--9--9--10-10-10-9--9--9--14-14-14--|
E----------------------------------------------------------------------------|

e------------------------------------------------------------------|
B------------------------------------------------------------------|
G------------------------------------------------------------------|
D-5-0-2-5-0-2-5-0-2-5-0-2------------------------------------------|
A------------------------------------------------------------------|
E------------------------------------------------------------------|


                           [ first time           ]
e------------------------------------------------------------------|
B------------------------------------------------------------------|
G-9-x-x-x-x-9-9-9-x-x-x-x---------2--------------------------------|
D-9-x-x-x-x-9-9-9-x-x-x-x---2-4-5---5-0-4-0-2-0-2/-----------------|
A-7-x-x-x-x-7-7-7-x-x-x-x------------------------------------------|
E------------------------------------------------------------------|
p.m .....................

 [ second     time    ] [ third         time  ] [     fourth          time]
e----------------------------------------------------------------------------|
B----------------5-4-5/------------------------------------------------------|
G--------2---------------------2-----------------------2------5-0-4-0-3-0-2--|
D-2--4-5---5-4-2---------2-4-5---5-0-4-0-2-0-2/--2-4-5---5-2-----------------|
A----------------------------------------------------------------------------|
E----------------------------------------------------------------------------|


chorus

e---------------------------------------------------------------------|
B---------------------------------------------------------------------|
G-9-9-9-9-9-9-9-9-9-9-11-11-11-11-11-11-11-11-12-12-12-12-11-11-11-11-|
D---------------------------------------------------------------------|
A-7-7-7-7-7-7-7-7-7-7-9--9--9--9--9--9--9--9--10-10-10-10-9--9--9--9--|
E---------------------------------------------------------------------|

e----------------------------------------------------------------------------|
B----------------------------------------------------------------------------|
G-9-9-9-9-9-9-9-9-9-9-11-11-11-11-11-11-11-11-11-12-12-12-11-11-11-16-16-16--|
D----------------------------------------------------------------------------|
A-7-7-7-7-7-7-7-7-7-7-9--9--9--9--9--9--9--9--9--10-10-10-9--9--9--14-14-14--|
E----------------------------------------------------------------------------|

solos
to come later
Related for Party On Dudes Get Hype tab
Advertisement will be closed in 10 seconds