Song name
# A B C D E F G H I J K L M N O P Q R S T U V W X Y Z

Test Icicles - Catch It tab

intro

gtr 1 (rory)
e------------------------------------------------------------------|
B------------------------------------------------------------------|
G------------------------------------------------------------------|
D-1-1-1-3-4-3-1-1-1-3-4-3-1-1-1-1-1-3-4-3-4-7-5-3-1----------------|
A------------------------------------------------------------------|
E------------------------------------------------------------------|

gtr 2?


verse

both (rory and sam)
e------------------------------------------------------------------|
B----------------------------------------10-8-10-8-8-7-8-7---------|
G-8-8-11-11-11-8-8-11-11-11-8-8-11-11-11---------------------------|
D------------------------------------------------------------------|
A-6-6-9--9--9--6-6-9--9--9--6-6--9--9--9---------------------------|
E------------------------------------------------------------------|


bridge

gtr 1 (rory)
e------------------------------------------------------------------|
B------------------------------------------------------------------|
G------------------------------------------------------------------|
D-1-1-1-3-4-3-1-1-1-3-4-3-1-1-1-1-1-3-4-3-4-7-5-3-1----------------|
A------------------------------------------------------------------|
E------------------------------------------------------------------|

gtr 2 (sam)

e------------------------------------------------------------------------|
B------------------------------------------------------------------------|
G-8~----------------------18~--------------------------------------------|
D------------------------------------------------------------------------|
A------------------------------------------------------------------------|
E------------------------------------------------------------------------|

verse 2

e------------------------------------------------------------------|
B------------------------------------------------------------------|
G-8-8-7-7-3-3-2-2--8-8-7-7-3-2-2-----------------------------------|
D-8-8-7-7-3-3-2-2--8-8-7-7-3-2-2-----------------------------------|
A-6-6-5-5-1-1-0-0--6-6-5-5-1-0-0-----------------------------------|
E------------------------------------------------------------------|

prechorus (theres no point bleeding when you've got no heart..)

gtr 1

e------------------------------------------------------------------|
B------------------------------------------------------------------|
G------------------------------------------------------------------|
D-1-1-1-1-3-4-3-1-1-1-1-4-3-1-0-1-1-1-1-3-4-3-1-1-4-7--------------|
A------------------------------------------------------------------|
E------------------------------------------------------------------|

gtr 2

e------------------------------------------------------------------|
B------------------------------------------------------------------|
G--------------------------------8-8-8-8-7-8-10-11-10-8-11-14/-----|
D------------------------------------------------------------------|
A------------------------------------------------------------------|
E------------------------------------------------------------------|

chorus

gtr.2 (tremolo picking)

e------------------------------------------------------------------|
B------------------------------------------------------------------|
G-13-13-13-13-10-14-14-14-13-13-10-14-14--15-15-18-----------------|
D------------------------------------------------------------------|
A------------------------------------------------------------------|
E------------------------------------------------------------------|

presolo

e------------------------------------------------------------------|
B-16~--------------------------------------------------------------|
G-----14~~~fbk.----------------------------------------------------|
D------------------------------------------------------------------|
A------------------------------------------------------------------|
E------------------------------------------------------------------|

solo

gtr 1
e------------------------------------------------------------------|
B------------------------------------------------------------------|
G------------------------------------------------------------------|
D-1-1-1-3-4-3-1-1-1-3-4-3-1-1-1-1-1-3-4-3-4-7-5-3-1----------------|
A------------------------------------------------------------------|
E------------------------------------------------------------------|


e----------------------------------18-18-18------------------------|
B------------------------------------------------------------------|
G-14-14-15-15-14-14-15-15-------------------???----??--------------|
D-------------------------\-/-\-/--------------????----------------|
A------------------------------------------------------/-/--/------|
E------------------------------------------------------------------|

e------------------------------------------------------------------|
B------------------------------------------------------------------|
G-12t-12t-12t-11t-11t-11t-12t-12t-12t-11t-11t-11t------------------|
D------------------------------------------------------------------|
A------------------------------------------------------------------|
E------------------------------------------------------------------|

e----------------------------------------------------19~b----------|
B------------------------------------------------------------------|
G-15t-15t-14t-14t-15t-15t-14t-/-19-19-19-19------------------------|
D------------------------------------------------------------------|
A------------------------------------------------------------------|
E------------------------------------------------------------------|

both (rory and sam)
e------------------------------------------------------------------|
B----------------------------------------10-8-10-8-8-7-8-7---------|
G-8-8-11-11-11-8-8-11-11-11-8-8-11-11-11---------------------------|
D------------------------------------------------------------------|
A-6-6-9--9--9--6-6-9--9--9--6-6--9--9--9---------------------------|
E------------------------------------------------------------------|

chorus

gtr.2 (tremolo picking)

e------------------------------------------------------------------|
B------------------------------------------------------------------|
G-13-13-13-13-10-14-14-14-13-13-10-14-14--15-15-18-----------------|
D------------------------------------------------------------------|
A------------------------------------------------------------------|
E------------------------------------------------------------------|

then just finish with random notes i guess?? and some synth
Tap to rate this tab
# A B C D E F G H I J K L M N O P Q R S T U V W X Y Z